Song name
# A B C D E F G H I J K L M N O P Q R S T U V W X Y Z

Witchcraft - Remembered tab

Tabbed this song by ear because I couldn't find tablature online.  Let me know if I did
an alright job, eh?
Enjoy.

Note:  Tab does not include solos.

Second note:  Tab is very spaced out to make sure all the timings are clear.  Deal with it.

Key:
| /   slide up
| \   slide down
| h   hammer-on
| p   pull-off
| ~   vibrato
| +   harmonic
| x   Mute note
| b   Bend
| pb  Pre-bend
| br  Bend release
| pbr Pre-bend release
| brb Bend release bend

Intro Lead

e-----------------------------------------------------------------|
B-7h9---9-9p7-----7---------------5h7---7-7p5-----5---------------|
G-------------9-------8-----------------------7-------6-----------|
D-------------------------9-------------------------------7-------|
A-----------------------------------------------------------------|
E-----------------------------------------------------------------|

Intro Rhythm (play staccato)

  E               E               D               D

e-7---------------7---------------5---------------5---------------|
B-9---------------9---------------7---------------7---------------|
G-9---------------9---------------7---------------7---------------|
D-----------------------------------------------------------------|
A-----------------------------------------------------------------|
E-----------------------------------------------------------------|

Play intro 4x, then this little bit happens

e-----------------------------------------------------------------|
B-----------------------------------------------------------------|
G-----------------------------------------------------------------|
D-5---2---------------------------4h5p4h5p4-----------------------|
A-5---2-----------------------------------------------------------|
E-3---0-----------------------------------------------------------|

e-----------------------------------------------------------------|
B-----------------------------------------------------------------|
G-------------------------------------2---------------------------|
D-5---2---------------------------4h5-----5---4h5p4---------------|
A-5---2-----------------------------------------------------------|
E-3---0-----------------------------------------------------------|

Play intro 4x again, then the verse rhythm comes in

Verse rhythm

e-----------------------------------------------------------------|
B-----------------------------------------------------------------|
G-----------------------------------------------------------------|
D-5---7---x-x-9---10--x-x-5-------5---7---x-x--9---10--x-x--5-----|
A-5---7---x-x-9---10--x-x-5-------5---7---x-x--9---10--x-x--5-----|
E-3---5---x-x-7---8---x-x-3-------3---5---x-x--7---8---x-x--3-----|

Play this many times, listen to the song for an exact number.

Quick note:  If you want to play the lead guitar for the verse, I don't know it, and I'm
sorry.  I can tell you that the song is in A minor, so play away.  Oh, and make sure
you play more leads in the later parts of the verses, and go for a call-and-response 
with the vocals.

Chorus rhythm

  C       G       A               C       G       A

e-0-------3-------0---------------0-------3-------0---------------|
B-1-------3-------1---------------1-------3-------1---------------|
G-0-------0-------2---------------0-------0-------2---------------|
D-2-------0-------2---------------2-------0-------2---------------|
A-3-------2-------0---------------3-------2-------0---------------|
E---------3-------------------------------3-----------------------|

Post-chorus jam (1st chorus)

e-----------------------------------------------------------------|
B-----------------------------------------------------------------|
G-5---7-x-x-x-x-5---7\------------5---7-x-x-x-x-5---7\------------|
D-5---7-x-x-x-x-5---7\------------5---7-x-x-x-x-5---7\------------|
A-3---5-x-x-x-x-3---5\------------3---5-x-x-x-x-3---5\------------|
E-----------------------------------------------------------------|

Post-chorus jam/bass solo (2nd chorus)

e-----------------------------------------------------------------|
B-----------------------------------------------------------------|
G-7---5---7-----------------------10--9---10----------------------|
D-7---5---7-----------------------10--9---10----------------------|
A-5---3---5-----------------------8---7---8-----------------------|
E-----------------------------------------------------------------|

Ending jam/horn solo
e-----------------------------------------------------------------|
B-----------------------------------------------------------------|
G-------------5---4-------7---5-4---------------------------------|
D-5---7---x-x-5---4---5---7---5-4---------------------------------|
A-5---7---x-x-3---2---5---5---3-2---------------------------------|
E-3---5---x-x---------3-------------------------------------------|

Final note:  Playing with just one guitar?  Here's an alternate take on the intro:

e-7---------------7---------------5---------------5---------------|
B-7h9---9-9p7-----7---------------5h7---7-7p5-----5---------------|
G-------------9-------8-----------------------7-------6-----------|
D-------------------------9-------------------------------7-------|
A-----------------------------------------------------------------|
E-----------------------------------------------------------------|

This might also be how it's actually played by Witchcraft live.  I have no idea, the
only video I could find had a terrible framerate.
Tap to rate this tab
# A B C D E F G H I J K L M N O P Q R S T U V W X Y Z