Song name
# A B C D E F G H I J K L M N O P Q R S T U V W X Y Z

Witchfinder General - Burning A Sinner tab

-----------------------------------------------------------------------------
	          Burning a Sinner - Witchfinder General
-----------------------------------------------------------------------------
Tabbed by:Discoboy95
Email:dont have

Tuning:Standard
  This riff is played throughout the song
main riff
e|---------------------------------------------------------------------------|
B|---------------------------------------------------------------------------|
G|-----------------------------------------------------------5-7-5-----------|
D|-------------------------------------------------------5-7-----------------|
A|---7/9-9-9-9-----7-12-12-14\-----7/9-9-9-9----7----5-7---------------------|
E|---5/7-7-7-7-----5-10-10-12\-----5/7-7-7-7----5----------------------------|
repeat 4x then play
e|---------------------------------------------------------------------------|
B|---------------------------------------------------------------------------|
G|---------------------------------------------------------------------------|
D|---------------------------------------------------------------------------|
A|---7/9-9-9-9-----7/9--12-7-------------------------------------------------|
E|---5/7-7-7-7-----5/7--10-5-------------------------------------------------|
then repeat main riff
my 2nd tab it sounds correct to me, couldnt figure out solo sorry
please rate


| /  slide up
| \  slide down
=============================================================================
Tap to rate this tab
# A B C D E F G H I J K L M N O P Q R S T U V W X Y Z