Witchfinder General - Death Penalty tab

My Second tab done fully by ear! Although no solo here(The first one is too god 
awful to bother with and the second, eh :/ )

Death Penalty
Witchfinder General
Death Penalty

D Standard

*=Palm-Mute
/=Slide

Riff A
|---------------------------------------|
|---------------------------------------|
|---------------------------------------|
|---------------------------------------|
|--5--55--8--10-11-------5-8-10-11------|
|--3--33--6--8--9---333--3-6-8--9-------|
      **            ***

Riff B
|------------------------------------|
|------------------------------------|
|------------------------------------|
|------------------------------------|
|-5----------8----------10-----------|
|-3----------6----------8------------|
|
|
|-----------------------------------|
|-----------------3---------5-------|
|-------------------3---------5-----|
|--------------3------3-3/5-----5---|
|-----------------------------------|
|-----------------------------------|

Riff A
|---------------------------------------|
|---------------------------------------|
|---------------------------------------|
|---------------------------------------|
|--5--55--8--10-11-------5-8-10-11------|
|--3--33--6--8--9---333--3-6-8--9-------|
      **            ***
Riff B
|------------------------------------|
|------------------------------------|
|------------------------------------|
|------------------------------------|
|-5----------8----------10-----------|
|-3----------6----------8------------|
|
|
|-----------------------------------|
|-----------------3---------5-------|
|-------------------3---------5-----|
|--------------3------3-3/5-----5---|
|-----------------------------------|
|-----------------------------------|


Riff A
|---------------------------------------|
|---------------------------------------|
|---------------------------------------|
|---------------------------------------|
|--5--55--8--10-11-------5-8-10-11------|
|--3--33--6--8--9---333--3-6-8--9-------|

Riff C 
|-----------------------------------|
|-----------------------------------|
|-----------------------------------|
|-------------------------10-----10-|
|10-1010101010101010-10--8--10---8--|
|8--8-8-8-8-8-8-8-8--8------8-------|

Solo Rhythem
|----------------------------------------------|
|----------------------------------------------|
|----------------------------------------------|
|--------------------------------12--------12--|
|12--12-12-12-12-12-12-12-12--12-10--12----10--|
|10--10-10-10-10-10-10-10-10--10-----10--------|

Riff A
|---------------------------------------|
|---------------------------------------|
|---------------------------------------|
|---------------------------------------|
|--5--55--8--10-11-------5-8-10-11------|
|--3--33--6--8--9---333--3-6-8--9-------|
      **            ***

Riff B
|------------------------------------|
|------------------------------------|
|------------------------------------|
|------------------------------------|
|-5----------8----------10-----------|
|-3----------6----------8------------|
|
|
|-----------------------------------|
|-----------------3---------5-------|
|-------------------3---------5-----|
|--------------3------3-3/5-----5---|
|-----------------------------------|
|-----------------------------------|

Riff A
|---------------------------------------|
|---------------------------------------|
|---------------------------------------|
|---------------------------------------|
|--5--55--8--10-11-------5-8-10-11------|
|--3--33--6--8--9---333--3-6-8--9-------|
      **            ***

Acoustic
|----------1---------------1-----------1--------------1----|
|--------3---3-----------3---3-------3---3---------3----3--|
|-----2--------2------2--------2---2-------2----2---------2|
|--0-------------------------------------------------------|
|------------------3-------------1-----------0-------------|
|----------------------------------------------------------|

Tap to rate this tab
 
# A B C D E F G H I J K L M N O P Q R S T U V W X Y Z