Song name
# A B C D E F G H I J K L M N O P Q R S T U V W X Y Z

Witchfinder General - Free Country tab

-----------------------------------------------------------------------------
			     Free Country - Witchfinder General
-----------------------------------------------------------------------------

Tabbed by: RickM
Email: rickmorin89@gmail.com
Tuning: Standard E

Main Riff/Verse: "Reality it is a lie, The briefest dream before I die..."

e|--------------------------------------------------------------|
B|--------------------------------------------------------------|
G|-6-6-6-6-6-6--------------------------------------------------|
D|-6-6-6-6-6-6--------4-----6-------4---------------------------|
A|-4-4-4-4-4-4--4--7----6b----6\4---2---------------------------|
E|--------------------------------------------------------------|

Chorus: " Look out for me, let's trip on Lsd...."

e|--------------------------------------------------------------|
B|--------------------------------------------------------------|
G|---------------4----------------------------------------------|
D|-6-6-----2-----4-----4---4-4-4-4-4-4-4-4-4-4-4-4--------------|
A|-6-6-----2-----2-----4---4-4-4-4-4-4-4-4-4-4-4-4--------------|
E|-4-4-----0-----------2---2-2-2-2-2-2-2-2-2-2-2-2--------------|

e|--------------------------------------------------------------------|
B|--------------------------------------------------------------------|
G|---------------4----------------------------------------------------|
D|-6-6-----2-----4-----4---4-4-4-4-4-4--------------------------------|
A|-6-6-----2-----2-----4---4-4-4-4-4-4--------------------------------|
E|-4-4-----0-----------2---2-2-2-2-2-2----2b3-------------------------|

*Repeat Main Riff/Verse and Chorus*

Bridge: 
e|--------------------------------------------------------------------|
B|--------------------------------------------------------------------|
G|--------------------------------------------------------------------|
D|----4--2h4p2-----2--------------------------------------------------|
A|--------------4----4---2-0---2p0--2p0-------------------------------|
E|--2------------------------------------4~---------------------------|

Rhythm Guitar for solo: 
e|--------------------------------------------------------------------|
B|--------------------------------------------------------------------|
G|----------------------------6-6-6-6-6-6-6-6-6-6....-----------------|
D|--6-6-6-6-6-6-6-6-6-6....---6-6-6-6-6-6-6-6-6-6....-----(x2)--------|
A|--6-6-6-6-6-6-6-6-6-6....---4-4-4-4-4-4-4-4-4-4....-----------------|
E|--4-4-4-4-4-4-4-4-4-4....-------------------------------------------|

Improvise.

************************************

| /   slide up
| \   slide down
| h   hammer-on
| p   pull-off
| ~   vibrato
| +   harmonic
| x   Mute note
| b   Bend
| pb  Pre-bend
| br  Bend release
| pbr Pre-bend release
| brb Bend release bend

************************************
Tap to rate this tab
 
# A B C D E F G H I J K L M N O P Q R S T U V W X Y Z