Guitaretab - guitar tabs
Song name
# A B C D E F G H I J K L M N O P Q R S T U V W X Y Z

With Blood Comes Cleansing - Hematidrosis tab

----------------------------------------------------------------------------
HEMATIDROSIS - With Blood Comes Cleansing
----------------------------------------------------------------------------
Tabbed by: Shinsen88
Email: shinsen88@yahoo.com

Tuning: Drop C (CGCFAD)

*DRUM FILL*

RIFF A (0:02-0:18)
D|-----------------------------------------------------------|
A|-----------------------------------------------------------|
F|-----------------------------------------------------------|
C|-----------------------------------------------------------| x4
G|----------------------------------111---------111-----111--|
C|--111-444-333-111-333-111-000-000-----000-000-----000------|
    ... ... ... ... ... ... ... ...     ... ...     ...

RIFF B (0:19-0:27)
D|------------------------------|
A|------------------------------|
F|-------------------------3----|
C|-------------------------3-4--| x2
G|--6-5-2-1--6-5-2--1-4--|
C|---------------------------4--|

RIFF A x4 (0:28-0:43)

RIFF C (0:44-1:05) x4                                     finish
D|----------------------------------------------||---------------------|
A|----------------------------------------------||---------------------|
F|----------------------------------------------||---------------------|
C|---------------------------2-1-0--2-1-0--2-1--||--2-1-0--2-1-0--1-0--|
G|-----------7--------------2-1-0--2-1-0--2-1--||--2-1-0--2-1-0--1-0--|
C|--5-7-8----8-7-5-7--2-1-0--2-1-0--2-1--||--2-1-0--2-1-0--1-0--|
                             . . .  . . .  . .      . . .  . . .  . .

*RISE UP!!!*

RIFF D (1:06-1:13)
D|---------------------------------------------------|
A|---------------------------------------------------|
F|---------------------------------------------------|
C|--0-0-0--0--0-0-0-0--0--0-0-0-0--0-0-0-0--0-0-0-0--|
G|--0-0-0--0--0-0-0-0--0--0-0-0-0--0-0-0-0--0-0-0-0--| x2
C|--0-0-0--0--0-0-0-0--0--0-0-0-0--0-0-0-0--0-0-0-0--|
    . . .  .  . . . .  .  . . . .  . . . .  . . . .

[ Tab from: http://www.guitaretab.com/w/with-blood-comes-cleansing/109022.html ]
RIFF E (1:14-1:18)
D|--------------------------------------------|
A|--------------------------------------------|
F|--------------------------------------------|
C|---------0-0--0--0-0-0-0--0-0-0-0--0-0-0-0--|
G|--1------0-0--0--0-0-0-0--0-0-0-0--0-0-0-0--|
C|----2-1--0-0--0--0-0-0-0--0-0-0-0--0-0-0-0--|
           . .  .  . . . .  . . . .  . . . . 

RIFF D x1 (1:18-1:22)

RIFF E x3 (1:23-1:34) then (1:35-1:38)
D|----------------------------------|
A|----------------------------------|
F|----------------------------------|
C|---------0-0--2-1-0--2-1-0--1-0---|
G|--1------0-0--2-1-0--2-1-0--1-0---|
C|----2-1--0-0--2-1-0--2-1-0--1-0---|
           . .  . . .  . . .  . .

RIFF F (1:39-1:50)
D|------------------------------------|
A|------------------------------------|
F|------------------------------------|
C|------------------------------------|
G|------------------------------------| x3
C|--8-5-0-8-5-0-8-5--7-4-0-7-4-0-7-4--|

RIFF G (1:51-1:57)
D|--------------------------------------------------------------------|
A|--------------------------------------------------------------------|
F|--------------------------------------------------------------------|
C|--------------------------------------------------------------------|
G|--------------------------------------------------------------------| x2
C|--8-8-5-5-0-0-8-8-5-5-0-0-8-8-5-5--7-7-4-4-0-0-7-7-4-4-0-0-7-7-4-4--|

RIFF H (1:58-2:27) x4      finish
D|----------------------||-------|
A|----------------------||-------|
F|----------------------||-------|
C|----------------------||--0-3--|
G|----------------------||--0-3--|
C|--8-5-0--7-4-0--||--0-3--|
                            . .
RIFF A x2 (2:28-2:37) 

RIFF C x2 plus Finish (2:38-2:49)

*Hemorrhaging from the pores of His body!!!*

RIFF I x4 (2:50-3:11)    finish
D|---------------------||-----|
A|---------------------||-----|
F|---------------------||-----|
C|--2-1-0--2-1-0--1-0--||--2--|
G|--2-1-0--2-1-0--1-0--||--2--|
C|--2-1-0--2-1-0--1-0--||--2--|
    . . .  . . .  . .      .

| .  palm mute
| "  tremelo pick
| /  slide up
| \  slide down
| h  hammer-on
| p  pull-off
| ~  vibrato
| +  harmonic
| x  Mute note
============================================================================
Related for Hematidrosis tab