Song name
# A B C D E F G H I J K L M N O P Q R S T U V W X Y Z

With Blood Comes Cleansing - Fearless Before Opposition tab

intro
/------------------/
/------------------/
/------------------/
/------------------/ (x8)
/--3--65-----------/
/---------87-------/

/------------------/
/------------------/
/------------------/
/--3~-----2~-------/
/--3~-----2~-------/
/--3~--63-2~--5-2--/

/------------------/
/------------------/
/------------------/
/--3--63-2--52-----/  (x6)
/--3--63-2--52-----/
/--3--63-2--52-----/

/--------------------------------------------------------/
/--------------------------------------------------------/
/-----------------------------------------------------*6-/  (x5)
/--000777888101010888777555777-----222333555----333222---/
/------------------------------333-----------111---------/
dont know the melodic part yet

/-----------*16------------------------------------------/
/--------------------------------------------------------/
/----------------------------*13-------------------------/ (x6)
/--0325140-------0325140---------------------------------/
/--0325140-------0325140---------------------------------/
/--0325140-------0325140---------------------------------/
   .......       .......


/-----------*16~-----------------------------------------/
/--------------------------------------------------------/
/----------------------------*13~------------------------/
/--0325140-------0325140---------------------------------/
/--0325140-------0325140---------------------------------/
/--0325140-------0325140---------------------------------/
this parts played a little slower

/--------------------------------------------------------/
/--------------------------------------------------------/
/--------------("we have to fight")----------------------/
/--00000-00000--------------------00000-00000--00-0------/
/--00000-00000--------------------00000-00000--00-0------/
/--00000-00000--------------------00000-00000--00-0------/

/----------------------*16-----*16-----------------------/
/--------------------------------------------------------/
/--------------------------------------------------------/
/--00000-00000--00-0------00-0---------------------------/
/--00000-00000--00-0------00-0---------------------------/
/--00000-00000--00-0------00-0---------------------------/

well thats it
wbcc's fucking sick
Tap to rate this tab
 
# A B C D E F G H I J K L M N O P Q R S T U V W X Y Z