Song name
# A B C D E F G H I J K L M N O P Q R S T U V W X Y Z

With Blood Comes Cleansing - Mark Your Words tab

--------------------------------------------------------------------------
		   Mark Your Words - With Blood Comes Cleansing
--------------------------------------------------------------------------
Tabbed by: Jake Stephens
 www.myspace.com/jake5590

Tuning: Drop C

D|---------------------------------------------|--|
A|---------------------------------------------|  |
F|---------------------------------------------|  |
C|-------7-----------------------7-----------*-|  |
G|-5--8-----7--8--5--4--5--5--8-----7--8--5--4-|  |
C|---------------------------------------------|  |
                                                  |x3                  
D|------------------------------------------|     |
A|------------------------------------------|     |
F|------------------------------------------|     |
C|-------7----------------------------------|     |
G|-5--8-----7--8--5--4--5-------------------|     |
C|-------------------------3333333388887777-|-----|     

D|----------------------------------|
A|----------------------------------|
F|----------------------------------|
C|----------------------------------|x4
G|-55555555555588554444774444447744-|
C|----------------------------------|           

D|---------------------|
A|---------------------|
F|---------------------|
C|-0----3----2----5--1-|x2
G|-0----3----2----5--1-|
C|-0----3----2----5--1-|

D|-------------------------------------------------|
A|-------------------------------------------------|
F|-------------------------------------------------|
C|-------------------------------------------------|x3
G|-8p5p0-8p5p0-8p5p0-8p5p0-7p4p0-7p4p0-4p1p0-4p1p0-|
C|-------------------------------------------------|

D|--------------------------------------------------------|
A|--------------------------------------------------------|
F|--------------------------------------------------------|
C|-------------------------------------10-6-3-6-2-5-------|
G|-8p5p0-8p5p0-8p5p0-8p5p0-7p4p0-7p4p0-10-6-3-6-2-5-*--*--|
C|-------------------------------------10-6-3-6-2-5-3b-5b-|
                                        . . . . . .

D|-----------------------------------------------------|
A|-----------------------------------------------------|
F|-----------------------------------------------------|
C|-0--1--2--0--1--2--0--1--0--1--2--10-6-3-6-2-5-------|x3
G|-0--1--2--0--1--2--0--1--0--1--2--10-6-3-6-2-5-*--*--|
C|-0--1--2--0--1--2--0--1--0--1--2--10-6-3-6-2-5-3b-5b-|
   .  .  .  .  .  .  .  .  .  .  .   . . . . . .

D|---------------------------------------------------------|
A|---------------------------------------------------------|
F|---------------------------------------------------------|
C|-0--1--2--0--1--2--0--1--0--1--2--10-6-3-6-2-5-1---------|
G|-0--1--2--0--1--2--0--1--0--1--2--10-6-3-6-2-5-1-ringout-|
C|-0--1--2--0--1--2--0--1--0--1--2--10-6-3-6-2-5-1---------|
   .  .  .  .  .  .  .  .  .  .  .   . . . . . . 

D|----------------------------------|
A|----------------------------------|
F|----------------------------------|
C|----------------------------------|x4
G|-55555555555588554444774444447744-|
C|----------------------------------| 

D|--------------------------------------------------------|
A|--------------------------------------------------------|
F|--------------------------------------------------------|
C|-0--------------------------0--0--1-0----0-0-0-0-1-0----|repeat
G|-0-ringout------drums-------0--0--1-0----0-0-0-0-1-0-*--|
C|-0--------------------------0--0--1-0----0-0-0-0-1-0-3b-|
                              .  .    .    . . . .   .

| .  palm mute
| p  pull-off
| *  pinch harmonic


===========================================================================
Tap to rate this tab
# A B C D E F G H I J K L M N O P Q R S T U V W X Y Z