Song name
# A B C D E F G H I J K L M N O P Q R S T U V W X Y Z

With Broken Wings - The Birth Of Catastrophe tab

Tabbed by Nick Culliton, with the help of Eric Mochel
bid_you_farewell@live.com

As some of you may know, WBW is back together, and here's one of their older songs that 
only have a little bit of. It used a lot of delay pedal in the beginning so the ryhthm 
totally right

Intro                        Verse 1
e-----------------------------------------------------------|
B-----------------------------------------------------------|
G--------0---0-------0--0-------------0---0---------0--0----|
D-----6---6---6--6-----6--6--------6----6---6----6-----6--6-|
A-8-8---8--8---8---8-----------4-4---4----4---4---4---------|
E-----------------------------------------------------------|

e--------------------------|     x3 It ends after "I watch my grave grow
B--------------------------|        deeper..."
G--------0---0-------0--0--|
D-----6---6---6--6----6--6-|
A-6-6---6--6---6---6-------|
E--------------------------|

Verse 2
e-------------------------------------|the singles are eight notes
B-------------------------------------|the combined are sixteenth notes
G-------------------------------------|
D-6-6666-6-66666666-1-1111-1-11111111-|
A-4-4444-4-44444444-3-3333-3-33333333-|
E-------------------------------------|

Verse 3
e-------------------------------------------------| ALL sixteenth notes
B--------10's,11's,12's,13's not 1's.-------------|
G-666888101010131312121313131212121313131212121010
D-xxxxxxxxxxxxxxxxxxxxxxxxxxxxxxxxxxxxxxxxxxxxxxxx
A-4446668-8-8-111110101111111010101111111010108-8-|
E-------------------------------------------------|

Repeat intro and verse 1.

Well thats all i have so far.
Tap to rate this tab
# A B C D E F G H I J K L M N O P Q R S T U V W X Y Z