Song name
# A B C D E F G H I J K L M N O P Q R S T U V W X Y Z

With Broken Wings - A Beautiful Tragedy tab

Help us improve GuitareTab! Take a short survey!
i realise that Guitar 1 on the chorus has more going on than that, but thats the basis
it. i will try to tab all of the octaves for guitar one in the chorus soon. im not so
about the beggining but everything else is fine (i think). i also realise that with 
wings broke up but hell, i figuired id still post it

+ = pick slide
PM * = start palm muted but fade into non palm muted

Intro (Part 1)-
(Guitar 1)
E-----------------------------------------------------------------|
B-----------------------------------------------------------------|
G-----------------------------------------------------------------|
D-22-11-22-22-4-4-66-44-77-44-6-6-22-44-22-11-1-1-66-77-44-66-6-6-|
A-44-44-44-44-4-4-77-77-77-77-7-7-22-22-22-22-2-2-44-44-44-44-4-4-|
E-----------------------------------------------------------------|

(Guitar 2)
E----------------------------------------------------------------|
B----------------------------------------------------------------|
G----------------------------------------------------------------|
D----------------------------------------------------------------|
A----------------------------------------------------------------|
E----------------------------------------------------------------|


Intro (Part 2)-
(Guitar 1)
E------------------------------------------------------------------|
B------------------------------------------------------------------|
G------------------------------------------------------------------|
D--22-11-22-22-4-4-66-44-77-44-6-6-22-44-22-11-1-1-66-77-44-66-6-6-|
A--44-44-44-44-4-4-77-77-77-77-7-7-22-22-22-22-2-2-44-44-44-44-4-4-|
E------------------------------------------------------------------|

(Guitar 2)
E------------------------------------------------------------------|
B------------------------------------------------------------------|
G--66-66-66-66-6-6-22-22-22-22-2-2-44-44-44-44-4-4-99-99-88-88-8-8-|
D--66-66-66-66-6-6-22-22-22-22-2-2-44-44-44-44-4-4-99-99-99-99-9-9-|
A-+44-44-44-44-4-4-00-00-00-00-0-0-22-22-22-22-2-2-77-77-66-66-6-6-|
E-+----------------------------------------------------------------|


Intro (Part 3)-
(Guitar 1)
E--------------------------------|
B--------------------------------|
G-6-----8-----/8-----13----11----|
D---x16---x16-/--x16----x8----x8-|       x2
A-4-----6-----/6-----11----9-----|
E--------------------------------|

(Guitar 2)
E-----------------------------|
B-----------------------------|
G-6-----2-----4-----9----8----|
D-6-x16-2-x16-4-x16-9-x8-9-x8-|          x2
A-4-----0-----2-----7----6----|
E-----------------------------|


Verse (Part 1)-
(Guitar 1)
E---------------------------------------|
B---------------------------------------|
G-6-------2-------4-------9------8------|
D-6-6-----2-2-----4-4-----9-9----9-9----|
A-4-4-x16-0-0-x16-2-2-x16-7-7-x8-6-6-x8-|
E---------------------------------------|
PM  .       .       .       .      .

(Guitar 2)
E---------------------------------------|
B---------------------------------------|
G-6-------2-------4-------9------8------|
D-6-6-----2-2-----4-4-----9-9----9-9----|
A-4-4-x16-0-0-x16-2-2-x16-7-7-x8-6-6-x8-|
E---------------------------------------|
PM  .       .       .       .      .


Verse (Part 2)
(Guitar 1)
E---------------------------------------|
B---------------------------------------|
G-6-------2-------4-------9------8------|
D-6-6-----2-2-----4-4-----9-9----9-9----|
A-4-4-x16-0-0-x16-2-2-x16-7-7-x8-6-6-x8-|
E---------------------------------------|
PM  .       .       .       *

(Guitar 2)
E---------------------------------------|
B---------------------------------------|
G-6-------2-------4-------9------8------|
D-6-6-----2-2-----4-4-----9-9----9-9----|
A-4-4-x16-0-0-x16-2-2-x16-7-7-x8-6-6-x8-|
E---------------------------------------|
PM  .       .       .       *


Chorus-
(Guitar 1)
E--------------------------------|
B--------------------------------|
G-6-----8-----/8-----13----11----|
D---x16---x16-/--x16----x8----x8-|       x2
A-4-----6-----/6-----11----9-----|
E--------------------------------|

(Guitar 2)
E-----------------------------|
B-----------------------------|
G-6-----2-----4-----9----8----|
D-6-x16-2-x16-4-x16-9-x8-9-x8-|          x2
A-4-----0-----2-----7----6----|
E-----------------------------|


Verse 2(Part 1)-
(Guitar 1)
E---------------------------------------|
B---------------------------------------|
G-6-------2-------4-------9------8------|
D-6-6-----2-2-----4-4-----9-9----9-9----|
A-4-4-x16-0-0-x16-2-2-x16-7-7-x8-6-6-x8-|
E---------------------------------------|
PM  .       .       .       .      .

(Guitar 2)
E---------------------------------------|
B---------------------------------------|
G-6-------2-------4-------9------8------|
D-6-6-----2-2-----4-4-----9-9----9-9----|
A-4-4-x16-0-0-x16-2-2-x16-7-7-x8-6-6-x8-|
E---------------------------------------|
PM  .       .       .       .      .


Verse 2(Part 2)
(Guitar 1)
E---------------------------------------|
B---------------------------------------|
G-6-------2-------4-------9------8------|
D-6-6-----2-2-----4-4-----9-9----9-9----|
A-4-4-x16-0-0-x16-2-2-x16-7-7-x8-6-6-x8-|
E---------------------------------------|
PM  .       .       .       *

(Guitar 2)
E---------------------------------------|
B---------------------------------------|
G-6-------2-------4-------9------8------|
D-6-6-----2-2-----4-4-----9-9----9-9----|
A-4-4-x16-0-0-x16-2-2-x16-7-7-x8-6-6-x8-|
E---------------------------------------|
PM  .       .       .       *


Chorus-
(Guitar 1)
E--------------------------------|
B--------------------------------|
G-6-----8-----/8-----13----11----|
D---x16---x16-/--x16----x8----x8-|       x2
A-4-----6-----/6-----11----9-----|
E--------------------------------|

(Guitar 2)
E-----------------------------|
B-----------------------------|
G-6-----2-----4-----9----8----|
D-6-x16-2-x16-4-x16-9-x8-9-x8-|          x2
A-4-----0-----2-----7----6----|
E-----------------------------|


Bridge (Part 1)-
(Guitar 1)
E------------------|
B------------------|
G-6~-8~-8~-13~-11~-|
D------------------|  x2
A-4~-6~-6~-11~-9~--|
E------------------|

(Guitar 2)
E----------------|
B----------------|
G-6~-2~-4~-9~-8~-|
D-6~-2~-4~-9~-9~-| x2
A-4~-0~-2~-7~-6~-|
E----------------|


Bridge (Part 2)-
(Guitar 1)
E-----------------------------------|
B-----------------------------------|
G-6-------8-----------6------4------|
D-6-6-----8-8-----6---6-6----4-4----| x2
A-4-4-x16-6-6-x16-6-6-4-4-x8-2-2-x8-|
E-----------------4-4---------------|
PM  .       .       .   .      .

(Guitar 2)
E-----------------------------------|
B-----------------------------------|
G-----------------------------------|
D-----------------------------------|
A-----------------------------------|
E-----------------------------------|

Chorus-
(Guitar 1)
E--------------------------------|
B--------------------------------|
G-6-----8-----/8-----13----11----|
D---x16---x16-/--x16----x8----x8-|       x4
A-4-----6-----/6-----11----9-----|
E--------------------------------|

(Guitar 2)
E-----------------------------|
B-----------------------------|
G-6-----2-----4-----9----8----|
D-6-x16-2-x16-4-x16-9-x8-9-x8-|          x4
A-4-----0-----2-----7----6----|
E-----------------------------|


Outro-
(Guitar 1)
E----
B----
G-6~-
D----
A-4~-
E----

(Guitar 2)
E----
B----
G-4~-
D-4~-
A-2~-
E----
Related for A Beautiful Tragedy tab