Song name
# A B C D E F G H I J K L M N O P Q R S T U V W X Y Z

With Broken Wings - Under Disguise tab

Help us improve GuitareTab! Take a short survey!
With Broken Wings
Song: under disguise


Well this is all i could tab it took me a while to figure some things out, i dont know 
its correct but please rate it and comment my tab please.


1-1-1-1-1-0-0-0-0-0-5-5-5-5-5-1-0-1-5-5-5-5-5-3-3-3-3-3-1-1-1-1-1-0-0-0-0-0-|
3-3-3-3-3-3-3-3-3-3-3-3-3-3-3-3-3-3-3-3-3-3-3-3-3-3-3-3-3-3-3-3-3-3-3-3-3-3-|
2-2-2-2-2-2-2-2-2-2-2-2-2-2-2-2-2-2-2-2-2-2-2-2-2-2-2-2-2-2-2-2-2-2-2-2-2-2-|
----------------------------------------------------------------------------|
----------------------------------------------------------------------------|
----------------------------------------------------------------------------|

1-1-1-1-1-3-3-3-3-3-5-5-5-5-5-6-6-6-6-6-8-8-8-8-8-|
3-3-3-3-3-3-3-3-3-3-3-3-3-3-3-3-3-3-3-3-3-3-3-3-3-|
3-3-3-3-3-3-3-3-3-3-3-3-3-3-3-3-3-3-3-3-3-3-3-3-3-|
--------------------------------------------------|
--------------------------------------------------|
--------------------------------------------------|

------------------------|
---5-----5-----8---6----|
--7-7---7-7---7-7---7---| Repeat 4 times
-7---7-7---7-7---7---7--|
5-----5-----5-----------|
------------------------|
Related for Under Disguise tab