Song name
# A B C D E F G H I J K L M N O P Q R S T U V W X Y Z

With Honor - Stolen Glances tab

----------------------------------------------------------------------------
			     Stolen Glances: With Honor
----------------------------------------------------------------------------
Tabbed by: Jess
Email: xanti_herox@comcast.net


| /  slide
| h  hammer-on
| p  pull-off


Tuning:

d
a
f
d
a
d

Intro

d|----0-----0---0---0-----|
a|---0-----0---0---0----0-|
f|--5-----6---8---6--5-5--|
d|------------------------|
a|------------------------|
d|------------------------|

d|---------------------------------|
a|----0----------------------------|
f|---0-----0---0--------0-------0--|
d|--2-----0---0-------0-------2----|
a|-------3---1---0--1-----1/3------|
d|---------------------------------|


Repeat intro ^


d|---5--3-----------------|
a|---------3--0-----------|
f|---------------5--3-----|
d|--------------------2---|
a|----------------------3-|
d|------------------------|

d|-----------------------|
a|-----------------------|
f|-----0---------0-------|
d|----0---------2--------|
a|---1------1/3----------|
d|-----------------------|

d|--5--3------------------|
a|-------3--0--3--0--3--5-|
f|------------------------|
d|------------------------|
a|------------------------|
d|------------------------|

d|-----------------------|
a|-----------------------|
f|-----0---------0-------|
d|----0---------2--------|
a|---1------1/3----------|
d|-----------------------|

*Short pause*

d|--2---3-----0------0-------|
a|---------3----3------3-----|
f|----------------0------0---|
d|--0------3-----------------|
a|---------------------------|
d|---------------------------|

|| Repeat this a few times


d|--5---7-----5---7-----|
a|---------8----------8-|
f|----------------------|
d|----------------------|
a|--5---7-----5---7-----|
d|---------8----------8-|

riff

d|--7--5------------------|
a|-------8--7---7h8p7h----|
f|----------------------8-|
d|------------------------|
a|------------------------|
d|------------------------|

d|--2--3----------------|
a|---------3------------|
f|----------------------|
d|----------------------|
a|--0------3------------|
d|----------------------|
*repeat riff only*

-Ending:

d|----0--------------0------|
a|---7--7----------5----5---|
f|--------0---------------0-|
d|--------------------------|
a|---7-------------5--------|
d|--------------------------|

d|----0------------|
a|--3---3----------|
f|--------0--------|
d|-----------------|
a|--3--------------|
d|-----------------|

d|---------------------------3-|
a|--------------------------5--|
f|-------------------------5---|
d|-----------------------0-----|
a|--0---1--------------0-------|
d|---------2--3--0---0---------|

strum last 6 notes slowly

So that was my first tab. I believe there are some bass notes in it
because it's hard to tell which plays what in the song.

and apparently they don't believe it's a band..so

http://www.purevolume.com/withhonor
http://www.withhonor.com/
Tap to rate this tab
 
# A B C D E F G H I J K L M N O P Q R S T U V W X Y Z