Guitaretab - guitar tabs
Song name
# A B C D E F G H I J K L M N O P Q R S T U V W X Y Z

With Passion - Road For The Worthy tab

----------------------------------------------------------------------------
			     SONG NAME - Band Name
----------------------------------------------------------------------------

Guitar By: John Abernathy
Tuning: CGCFAD???

() hold note
<> pinch harmonic
b  bend
r  release

e|-------------------------------------------------------------------------|
B|-------------------------------------------------------------------------|
G|-------------------------------------------------------------------------|
D|----------------12--14--15--15-14-12---------12--15--14--17--15--17--<19>|
A|12-(12)-15-(15)----------------------15-(15)-----------------------------|
E|-------------------------------------------------------------------------|
[ Tab from: http://www.guitaretab.com/w/with-passion/90150.html ]
e|---------------------------------------------------------------------|
B|---------------------------------------------------------------------|
G|---------------------------------------------------------------------|
D|-(19)---------------8--10--12--12-10-8---------8--12--7--10--5--8--3-|
A|------8-(8)-12-(12)--------------------12-(12)-----------------------|
E|---------------------------------------------------------------------|

e|-----------------------------------------------------------------|-------|
B|-----------------------------------------------------------------|-------|
G|-----------------------------------------------------------------|-------|
D|-------------5--7--8-(8)-8/10-(10)-10-10-10-8-7-5-7--5--3--2b3r2-|-0-(0)-|
A|-5-(5)-8-(8)-----------------------------------------------------|-0-(0)-|
E|-----------------------------------------------------------------|-0-(0)-|

|-----|
|-----|
|-----|
|-(0)-|
|-(0)-|
|-(0)-|

http://withpassionmetal.com/
Related for Road For The Worthy tab