Song name
# A B C D E F G H I J K L M N O P Q R S T U V W X Y Z

With The Punches - Stick And Move tab

This took ages to work out, but here it is...

Tuning: Drop D

Intro:
E|-------------------------------------------------|
B|------10---7------7---7-8-7----------------------|
G|--7------7------9---9-------9-7------------------| x4
D|-------------------------------------------------|
A|-------------------------------------------------|
D|-------------------------------------------------|

Verse 1, "I just needed you to know that..."
E|-------------------------------------------------|
B|-------------------------------------------------|
G|-11-11-11-11-11-11-11-11-12-12-12-12-11-11-11-11-|
D|-x--x--x--x--x--x--x--x--x--x--x--x--x--x--x--x--|
A|-9--9--9--9--9--9--9--9--10-10-10-10-9--9--9--9--|
D|-------------------------------------------------|

E|-------------------------------------------------|
B|-------------------------------------------------|
G|-14-14-14-14-14-14-14-14-14-14-14-14-14-14-14-14-| all x2
D|-x--x--x--x--x--x--x--x--x--x--x--x--x--x--x--x--|
A|-12-12-12-12-12-12-12-12-12-12-12-12-12-12-12-12-|
D|-------------------------------------------------|

"I'm turning blue..."
E|-------------------------------------------------|
B|-------------------------------------------------|
G|-------------------------------------------------|
D|-4--------------5--------------0-----------------|
A|-4-44444444444445-55555555555550-----------------|
D|-4-44444444444445-55555555555550-----------------|
     .............  .............

E|-------------------------------------------------|
B|-7-7-7---8-8-8---10-10-10-12-10-8-7--------------|
G|-x-x-x---x-x-x---x--x--x--x--x--x-x--------------|
D|-4-4-40--5-5-50--7--7--7--9--7--5-4--------------| all x2
A|------0-------0----------------------------------|
D|------0-------0----------------------------------|

"So here's to second chances"
E|-------------------------------------------------|
B|-------------------------------------------------|
G|-------------------------------------------------|
D|-5-----------------------------------------------|
A|-5---5-5-5-5-5-5-5-5-5-5-5-5-5-------------------|
D|-5---5-5-5-5-5-5-5-5-5-5-5-5-5-------------------|
       . . . . . . . . . . . . .

Chorus, "as I close my eyes"
E|-------------------------------------------------|
B|-------------------------------------------------|
G|-------------------------------------------------|
D|-------7---/9-7-5-7-5-4-5-7--4--5--5755545554----|
A|-4--5----------------------------------------7-5-|
D|-------------------------------------------------|

E|---------------------------------------------------------|
B|---------------------------------------------------------|
G|---------------------------------------------------------|
D|-------7---9-7-9-11-9-11-12-12---11--12-9--7-7-7-7-5-5-7-|
A|-4--5----------------------------------------------------|
D|---------------------------------------------------------|

E|-------------------------------------------------|
B|-------------------------------------------------|
G|-------------------------------------------------|
D|-------7---/9-7-5-7-5-4-5-7--4--5--5755545554----|
A|-4--5----------------------------------------7-5-|
D|-------------------------------------------------|

E|------------------------------------------------------------|
B|------------------------------------------------------------|
G|------------------------------------------------------------|
D|-------7---9-7-9-11-9-11-12-12---11--12-9--7-7-7-7-5-5-7-4~-|
A|-4--5-------------------------------------------------------|
D|------------------------------------------------------------|

No guitar, then repeat 
"I'm turning blue..." and 
"So here's to second chances"

Chorus 2:
E|----------------------------------------------------------|
B|----------------------------------------------------------|
G|----------------------------------------------------------|
D|-------7--------------------------------------------------|
A|-4--5----0-00--0002--0-----4---4---5---5-55-5555--5-------|
D|---------0-00--0002--0-----4---4---5---5-55-5555--5-------|
           . ..  ...                     . .. ...

E|----------------------------------------------------------|
B|----------------------------------------------------------|
G|----------------------------------------------------------|
D|-------7--------------------------------------------------|
A|-4--5----0-00--0002--0-----4---4---5~---------------------|
D|---------0-00--0002--0-----4---4---5~---------------------|
           . ..  ...                  

"I'm gonna start by saying what I mean"
E|----------------------------------------------------------|
B|----------------------------------------------------------|
G|----------------------------------------------------------|
D|-4--2--4--7--0--------------------------------------------| x2
A|-2--0--2--5--0--0-0-0-0-0-0-0-2--0--2-4--5--5-5-5-5-5-5-5-|
D|-------------0--0-0-0-0-0-0-0-2--0--2-4--5--5-5-5-5-5-5-5-|
                  . . . . . . .               . . . . . . .

Solo:
E|--------------------------------------------------10------|
B|-7---------------------7-8-10-8-10-12-10-12-14-14---------|
G|---7-4-6-7-9-7---6-7-9------------------------------------|
D|----------------------------------------------------------|
A|----------------------------------------------------------|
D|----------------------------------------------------------|

E|-12-12-12-14/12-10-9-10-9h10p9-7-9-7-5-7-5-3-3h5hp3-2-3-2-|
B|----------------------------------------------------------|
G|----------------------------------------------------------|
D|----------------------------------------------------------|
A|----------------------------------------------------------|
D|----------------------------------------------------------|

E|-0-2-3-5--3--2--3---2~------------------------------------|
B|----------------------------------------------------------|
G|----------------------------------------------------------|
D|----------------------------------------------------------|
A|----------------------------------------------------------|
D|----------------------------------------------------------|

Outro: "If I close my eyes..."
E|----------------------------------------------------------|
B|----------------------------------------------------------|
G|----------------------------------------------------------|
D|-0-------4-----5------------------------------------------| x2
A|-0-x16---4-x8--5-x8---------------------------------------|
D|-0-------4-----5------------------------------------------|

For the second half of this bit, either play the above again or listen close and 
you can hear this:
E|----------------------------------------------------------|
B|------10---7-------7---7-8-7------------------------------|
G|--7------------------9-------9-7--------------------------| x4
D|----------------------------------------------------------|
A|----------------------------------------------------------|
D|----------------------------------------------------------|

Repeat Intro, and you're done :)
Tap to rate this tab
 
# A B C D E F G H I J K L M N O P Q R S T U V W X Y Z