Song name
# A B C D E F G H I J K L M N O P Q R S T U V W X Y Z

With The Punches - Corporate Ladder Match tab

Tuning: Drop D

Where used -
t = 10
w = 12
. = palm mute
x = mute



It starts on the one note:
E|-------|
B|-------|
G|-------|
D|--3----|
A|--3----|
D|--3----|



Then the verse: [It's a funny offbeat type strumming]
E|-----------------------------------------------|
B|-----------------------------------------------|
G|-tt-ttt-t99-999-977-777-799-999-9--------------|
D|-xx-xxx-xxx-xxx-xxx-xxx-xxx-xxx-x--------------|
A|-88-888-877-777-755-555-577-777-78--10-8-7--8-7|
D|-----------------------------------------------|

E|-----------------------------------------------|
B|-----------------------------------------------|
G|-tt-ttt-t99-999-977-777-799-999-9tt-ttt-ttt-ttt|
D|-xx-xxx-xxx-xxx-xxx-xxx-xxx-xxx-xxx-xxx-xxx-xxx|
A|-88-888-877-777-755-555-577-777-788-888-888-888|
D|-----------------------------------------------|

E|-----------------------------------------------|
B|-----------------------------------------------|
G|-tww-www-w99-999-------------------------------|
D|-xxx-xxx-xxx-xxx-------------------------------|
A|-8tt-ttt-t77-777-------------------------------|
D|-----------------------------------------------|

E|-------------------------------------------------|
B|-------------------------------------------------|
G|91010-12-10-12-14-14-14--151515--14-12-14-12-10-9|
D|xx-x--x--x--x--x--x--x---x-x-x---x--x--x--x--x--x|
A|78-8--10-8--10-12-12-12--131313--12-10-12-10-8--7|
D|-------------------------------------------------|

E|-----------------------------------------------|
B|-----------------------------------------------|
G|-ttt-ttt-ttt-ttt-ttt-ttt-ttt-ttt---------------|
D|-xxx-xxx-xxx-xxx-xxx-xxx-xxx-xxx---------------|
A|-888-888-888-888-888-888-877-777---------------|
D|-----------------------------------------------|



Chorus:
E|-----------------------------------------------|
B|-----------------------------------------------|
G|-----------------------------------------------|
D|----7-----7-----10---8---7h8p7-----------------|
A|8-8---8-8---8-8----8---8-------8---------------|
D|-----------------------------------------------|
  . .   . .   . .    .   .
E|-----------------------------------------------|
B|-----------------------------------------------|
G|-----------------------------------------------|
D|----7-----7-----10---8---7/8---12--10-8-10-8-7-|
A|7-7---7-7---7-7----7---7-----------------------|
D|-----------------------------------------------|
  . .   . .   . .    .   .
E|-----------------------------------------------|
B|-----------------------------------------------|
G|-----------------------------------------------|
D|-8-7----7--------------------------------------|
A|-----10---10-8-10-8-7-5--7--8--7--8--10--8--7--|
D|-----------------------------------------------|
Repeat all, end the second time on 8 on the A.



Verse 2:
E|-----------------------------------------------|
B|-----------------------------------------------|
G|-----------------------------------------------|
D|----------3-------3-3-----2-------2-2----------|
A|-12\\-33333-3333333-3-33333-3333333-3----------|
D|-12\\-33333-3333333-3-22222-2222222-2----------|
        ....  ......    ....  ......
E|-----------------------------------------------|
B|-----------------------------------------------|
G|-tt-ttt-ttt-ttt-t99-999-999-9999---------------|
D|-xx-xxx-xxx-xxx-xxx-xxx-xxx-xxxx---------------|
A|-88-888-888-888-877-777-777-7777---------------|
D|-----------------------------------------------|

E|-----------------------------------------------|
B|-----------------------------------------------|
G|-----------------------------------------------|
D|-----------------------------------------------|
A|-33-333-333-333-377-777-777-777----------------|
D|-33-333-333-333-377-777-777-777----------------|
   .. ... ... ... ... ... ... ...
E|-----------------------------------------------|
B|-----------------------------------------------|
G|-tt-ttt-t99-999-977-777-799-999-9tt-ttt-ttt-ttt|
D|-xx-xxx-xxx-xxx-xxx-xxx-xxx-xxx-xxx-xxx-xxx-xxx|
A|-88-888-877-777-755-555-577-777-788-888-888-888|
D|-----------------------------------------------|

E|-----------------------------------------------|
B|-----------------------------------------------|
G|-tww-www-w99-999-------------------------------|
D|-xxx-xxx-xxx-xxx-------------------------------|
A|-8tt-ttt-t77-777-------------------------------|
D|-----------------------------------------------|

E|-------------------------------------------------|
B|-------------------------------------------------|
G|91010-12-10-12-14-14-14--151515--14-12-14-12-10-9|
D|xx-x--x--x--x--x--x--x---x-x-x---x--x--x--x--x--x|
A|78-8--10-8--10-12-12-12--131313--12-10-12-10-8--7|
D|-------------------------------------------------|

E|-----------------------------------------------|
B|-----------------------------------------------|
G|-ttt-ttt-ttt-ttt-ttt-ttt-ttt-ttt---------------|
D|-xxx-xxx-xxx-xxx-xxx-xxx-xxx-xxx---------------|
A|-888-888-888-888-888-888-877-777---------------|
D|-----------------------------------------------|



[CHORUS]



Ending:
This is basically the same melody, going up an octave each time in different places. 
It's obvious where the changes are in the song, so just follow the song with these three things:

Ending part 1:
E|-------------------------------------------------|
B|-------------------------------------------------|
G|-------------------------------------------------|
D|-------------------------------------------------|
A|-------------------------------------------------|
D|3--5-3--t--333-333-3--5-3-t--ttt-8-7-8-7-5-7-5---|
             ..  ..
Repeat until the vocals kick in,

Ending part 2:
E|--------------------------------------------------|
B|--------------------------------------------------|
G|--------5---------------5--5-5-3-2-3-2-0-2-0------|
D|3--5-3------3-3--3--5-3---------------------------|
A|--------------------------------------------------|
D|--------------------------------------------------|

Ending part 3:

E|-----------------------------------------------------------|
B|-----------13--------------13---13-13-11-10-11-10----10----|
G|10--12-10--------10--12-10------------------------12----12-|
D|-----------------------------------------------------------|
A|-----------------------------------------------------------|
D|-----------------------------------------------------------|
And end the song on 10 on the G.
Tap to rate this tab
 
# A B C D E F G H I J K L M N O P Q R S T U V W X Y Z