Guitaretab - guitar tabs
Song name
# A B C D E F G H I J K L M N O P Q R S T U V W X Y Z

Withered Beauty - Immortality Is Mine tab

                      WITHERED BEAUTY - IMMORTALITY IS MINE
               From the Album DEATH IS JUST THE BEGINNING IV 2nd CD
                        Copyright 1997 Nuclear Blast

                             Version 3.1 - Feb 98

Re-Re-Transcribed by: Jordi Rubio (j.rubio@cgac.es)
ReTranscribed By: Richard Broadhead II()
First Transcribed by: Jordi Rubio (j.rubio@cgac.es)

Join displacer's death/black tab emailing list by emailing
                                

Visit 's Death Tab for more tabs!!


. - palm mute                   #tr(#) - trill between the two #'s
/ - slide up                        ph - pinch harmonic
\ - slide down                       ~ - vibrato
p - pull off                         * - see comment
h - hammer on                        " - tremolo note
bh- bend note half a step            bf-bend full step
bfh-bend note 1.5 steps              br-bend and release


     RIFF A
E-|------------------------------------------------------------------|
B-|------------------------------------------------------------------|
G-|------------------------------------------------------------------|
D-|------------------------------------------------------------------|
A-|--777777777777777-99999999-10101010------------------7777---------|
E-|------------------------------------8888888888888888------10101010|

     (End of RIFF A)
E-|-----------------|
B-|-----------------|
G-|-----------------|
D-|-----------------|
A-|-----------------|
E-|--77777777-------|

Play RIFF A two times, first time playing Fill 1
  
     Fill 1
E-|-----------------|
B-|-----------------|
G-|-----------------|
D-|-----------------|
A-|--2------2-------|
E-|--0-0000-0-------|
     . .... .

     RIFF A-1
E-|------------------------------------------------------------------|
B-|----------------77---------------------8888888888-7777------------|
G-|-------------99-------99------------99----------------------------|
D-|----------99-------99----99-1010-77-------------------------------|
A-|--77-1010---------------------------------------------------------|
E-|------------------------------------------------------------------|
  |  RIFF A-2                                                        |
E-|------------------------------------------------------------------|
B-|------------------------------------------------------------------|
G-|------------------------------------------------------------------|
D-|------------------------------------------------------------------|
A-|--77777777777-99999-101010----------------7777--------------------|
E-|--------------------------888888888888888------10101010-77777777--|

     (Continue RIFF A-1)
E-|------------------------------------------------------------------|
B-|------------------77---------------------88888h10p8-7777----------|
G-|---------------99-------99------------99--------------------------|
D-|------------99-------99----99-1010-77-----------------------------|
A-|---77--1010-------------------------------------------------------|
E-|------------------------------------------------------------------|
  |  RIFF A-2                                                        |
E-|------------------------------------------------------------------|
B-|------------------------------------------------------------------|
G-|------------------------------------------------------------------|
D-|------------------------------------------------------------------|
A-|--77777777777-99999-101010----------------7777--------------------|
E-|--------------------------888888888888888------10101010-77777777--|


Play RIFF A-1 and RIFF A-2 two times

     RIFF B
E-|------------------------------------------------------------------|
B-|------------------------------------------------------------------|
G-|----------------7777----------------------------------------------|
D-|--10101010101010----9999999999999-7777-101010101010--9999---------|
A-|------------------------------------------------------------------|
E-|------------------------------------------------------------------|
  |                                                                  |
  |  RIFF B-1                                                        |
E-|------------------------------------------------------------------|
B-|------------------------------------------------------------------|
G-|------------------------------------------------------------------|
D-|------------------------------------------------------------------|
A-|------1010-7777-9999-----7777-9999-7777-----1010-7777-9999--------|
E-|--8888---------------7777---------------8888----------------------|

(End of RIFF B)
E-|-----------------------------|
B-|-----------------------------|
G-|--7777777777777-6666---------|
D-|-----------------------------|
A-|-----------------------------|
E-|-----------------------------|
  |                             |
  |  (End of RIFF B-1)          |
E-|-----------------------------|
B-|-----------------------------|
G-|-----------------------------|
D-|-----------------------------|
A-|------9999-1010-9999---------|
E-|--1010-----------------------|

Play RIFF B and RIFF B-1 
Play RIFF A and RIFF A-1 two times
                                                      _____   _____
     RIFF C                                          | 1.    | 2.
E-|--------------------------------------------------------|---------|
B-|--------------------------------------------------------|---------|
G-|--------------------------------------------------------|---------|
D-|--------------------------------------------------22----|---33----|
A-|--55555555-22-33-------------------------22-33-55-------|---------|
E-|-----------------33-55-22-33-00-22-33-55----------------|---------|

Play RIFF C two times

     RIFF D 
E-|------------------------------------------------------------------|
B-|------------------------------------------------------------------|
G-|------------------------------------------------------------------|
D-|--99999999--------------------------------------------------------|
A-|----------9999-1010-99999999-77-66666666--------------------------|
E-|------------------------------------------------------------------|
  |
  |  RIFF D-1
E-|------------------------------------------------------------------|
B-|------------------------------------------------------------------|
G-|------------------------------------------------------------------|
D-|------------------------------------------------------------------|
A-|--77777777--------------------------------------------------------|
E-|----------1010-8888-77777777777777777777--------------------------|

Play RIFF D and RIFF D-1 two times

     RIFF E
E-|------------------------------------------------------------------|
B-|------------------------------------------------------------------|
G-|------------------------------------------------------------------|
D-|-------------------------------------------------------0----------|
A-|--3---------------2------------3---------------2-------2----------|
E-|----------2----------------------------2---------------3----------|

Play RIFF E 
Chorus part

     RIFF F
E-|------------------------------------------------------------------|
B-|------------------------------------------------------------------|
G-|------------------------------------------------------------------|
D-|----------5---------------------------------------4-------5-------|
A-|--2-------3-------5-------2-------2-------5-------2-------3-------|
E-|--0---------------3-------0-------0-------3-----------------------|
   
     (End of RIFF F)
E-|-----------------------------------|
B-|-----------------------------------|
G-|-----------------------------------|
D-|-----------------------------------|
A-|--2-------7---5---4---5-4-2--------|
E-|--0-------5---3---2---3-2-0--------|

Play RIFF F two times,second time without last E5 and playing RIFF F-1

     RIFF F-1
E-|------------------------------------------------------------------|
B-|------------------------------------------------------------------|
G-|------------------------------------------------------------------|
D-|----------2-------------------------------5-------4---0---2-------|
A-|--2---------------5-----3-2-------2-------------------------------|
E-|------------------------------------------------------------------|

     (End of RIFF F-1)
E-|-----------------------------------|
B-|-----------------------------------|
G-|-----------------------------------|
D-|--9-------7------------------------|
A-|--------------10--9---10-9---------|
E-|-----------------------------------|

     RIFF G
E-|------------------------------------------------------------------|
B-|------------------------------------------------------------------|
G-|----4---2---4-----------4---2---4-----------4---2---4-------------|
D-|----5---4---5-----------5---4---5-----------5---4---5-------------|
A-|------------------------------------------------------------------|
E-|--0---0---0---0-2-0-2-0---0---0---0-2-0-2-0---0---0---0-2-0-2-----|
     .   .   .   . . . . .   .   .   . . . . .   .   .   . . . . 

     (Continue RIFF G)
E-|------------------------------------------------------------------|
B-|------------------------5---3---5-----------5---3---5-------------|
G-|----4---2---4-----------5---4---5-----------5---4---5-------------|
D-|----5---4---5-----------------------------------------------------|
A-|--------------------2-0---0---0---0-2-0-2-0---0---0---0-2-3-------|
E-|--0---0---0---0-2-3-----------------------------------------2-----|
     .   .   .   . . . . .   .   .   . . . . .   .   .   . . . . 

     (End of RIFF G)
E-|-------------------------------------------------8-5--------------|
B-|-----------------------------------------------------6------------|
G-|----4---2---4-----------4---2---4----------------------5----------|
D-|----5---4---5-----------5---4---5------------------------7--------|
A-|----------------------------------------2-5----------------8------|
E-|--0---0---0---0-2-0-2-0---0---0---0-2-3---------------------------|
  |  .   .   .   . . . . .   .   .   . . . .                         |
  |                                                                  |
E-|-------------------------------------------------5----------------|
B-|---------------------------------------------------6--------------|
G-|----4---2---4-----------4---2---4--------------------7------------|
D-|----5---4---5-----------5---4---5----------------------7----------|
A-|----------------------------------------2-5--------------8-5------|
E-|--0---0---0---0-2-0-2-0---0---0---0-2-3---------------------------|
     .   .   .   . . . . .   .   .   . . . . 

Play RIFF G two times

     RIFF H
E-|------------------------------------------------------------------|
B-|------------------------------------------------------------------|
G-|-----------------------7-----------------------------9-7----------|
D-|-----7--9---------9-10----10-9----7--9-----------7-9-----10-9-----|
A-|--7--------10--7---------------7--------10--9-10------------------|
E-|------------------------------------------------------------------|
  |                                                                  |
E-|------------------------------------------------------------------|
B-|------------------------------------------------------------------|
G-|------------------------------------------------------------------|
D-|------------------------------------------------------------------|
A-|--first time:--7--------------------------------------/pick-slide-|
E-|--second time:-0--------------------------------------------------|

Play RIFF H two times.
Then Play RIFF H and RIFF H-1 two times

     RIFF H-1
E-|-------------------------------------------------------------5----|  
B-|-----------------------------------------------7-------5-7-8------| 
G-|---------------------------------------------7---4-5-7------------| 
D-|--------5h7-9--9-7-5-7-4-5-7-5---5-4---5-7-9----------------------|
A-|--7--5-------------------------7-----7----------------------------|
E-|------------------------------------------------------------------|

     RIFF I
E-|------------------------------------------------------------------|
B-|------------------------------------------------------------------|
G-|------------------------------------------------------------------|
D-|------------------------------------------------------------------|
A-|--2-2-2-2-2-2-2-2-2-2-2-2-2-2-2-2-2---2---2---2--2--2-------------|
E-|--0-0-0-0-0-0-0-0-0-0-0-0-0-0-0-0-0---0---0---0--0--0-------------|
     . . . . . . . . . . . . . . . .  

     (Continue RIFF I)
E-|------------------------------------------------------------------|
B-|------------------------------------------------------------------|
G-|------------------------------------------------------------------|
D-|--5-5-5-5-5-5-5-5-5-5-5-5-5-5-5-5-5---5---5---5--5--5-------------|
A-|--3-3-3-3-3-3-3-3-3-3-3-3-3-3-3-3-3---3---3---3--3--3-------------|
E-|------------------------------------------------------------------|
     . . . . . . . . . . . . . . . .  

Play RIFF I two times under the solo 

We couldn't decide which was the correct way to play the solo, so here's
two different ideas of wats going on, if you know the correct way or
have another view please email one of us your idea.

Interpertation #1 Of The Solo:

     GUITAR SOLO
E-|-------*-------------------------------------12-------------------|
B-|--15fb(15)--15fb--15fb---15fb--15fbr(15)fb------12-13-12----12----|
G-|---------------------------------------------------------14----14-|
D-|------------------------------------------------------------------|
A-|------------------------------------------------------------------|
E-|------------------------------------------------------------------|
*the 15 is picked here while in the bend.

E-|------------------------------------------------------------------|
B-|--------------------------12--------------------------------------|
G-|--12-14-12-12h14p12-11-12----12-11--------------------------------|
D-|-----------------------------------10~-10~-/10--10-/10--10--------|
A-|------------------------------------------------------------------|
E-|------------------------------------------------------------------|

E-|-------------------------------------------------------|
B-|----------------------------8h10h11-12-10-15p13p12-----|
G-|-----------9h10h12-10h12h14----------------------------|
D-|--10h12h14---------------------------------------------|
A-|-------------------------------------------------------|
E-|-------------------------------------------------------|

E-|--------------------------------------------12--------------------|
B-|--15fb-----15fb--15fb---15fb--15fbr(15)fb------12-13-12----12-----|
G-|--------------------------------------------------------14----14--|
D-|------------------------------------------------------------------|
A-|------------------------------------------------------------------|
E-|------------------------------------------------------------------|
[ Tab from: http://www.guitaretab.com/w/withered-beauty/45376.html ]
E-|------------------------------------------------------------------|
B-|--------------------------12--------------------------------------|
G-|--12-14-12-12h14p12-11-12----12-11--------------------------------|
D-|-----------------------------------10~-10~-/10--10-/10--10--------|
A-|------------------------------------------------------------------|
E-|------------------------------------------------------------------|

E-|-------------------------------------------------------|
B-|----------------------------8h10h11-12-10-15p13p12-----|
G-|-----------9h10h12-10h12h14----------------------------|
D-|--10h12h14---------------------------------------------|
A-|-------------------------------------------------------|
E-|-------------------------------------------------------|

Interpertation #2 Of The Solo:

     GUITAR SOLO                              fast bend
E-|-------*-------------------------------------*------------------------|
B-|--15fb(15)--15fb--15fb---15fb--15fbr(15)fb---15fbr-12-13-12----12-----|
G-|------------------------------------------------------------14----14--|
D-|----------------------------------------------------------------------|
A-|----------------------------------------------------------------------|
E-|----------------------------------------------------------------------|
*the 15 is picked here while in the bend.

E-|--------------------------------------------------------------------|
B-|----------------------12--------------------------------------------|
G-|--12-14-12-11h12p11-11---12-11-------------------------------7-9-10-|
D-|-------------------------------10~-10~-/10~-10~-/10~-10~-10~--------|
A-|--------------------------------------------------------------------|
E-|--------------------------------------------------------------------|

E-|-----------------------8-7-10-8------------|
B-|--5-6-8-6-8-10-8-10-11---------------------|
G-|-------------------------------------------|
D-|-------------------------------------------|
A-|-------------------------------------------|
E-|-------------------------------------------|

                                           fast bend
E-|-----------------------------------------*------------------------|
B-|--15fb--15fb--15fb---15fb--15fbr(15)fb---15fbr-12-13-12----12-----|
G-|--------------------------------------------------------14----14--|
D-|------------------------------------------------------------------|
A-|------------------------------------------------------------------|
E-|------------------------------------------------------------------|

E-|-------------------------------------------------------------------------|
B-|---------------------12--------------------------------------------5-6-8-|
G-|-12-14-12-11h12p11-11---12-11-------------------------------7-9-10-------|
D-|-------------------------------10~-10~-/10~-10~-/10~-10~-10~-------------|
A-|-------------------------------------------------------------------------|
E-|-------------------------------------------------------------------------|

E-|-----------------8-7-10-8------------|
B-|--6-8-10-8-10-11---------------------|
G-|-------------------------------------|
D-|-------------------------------------|
A-|-------------------------------------|
E-|-------------------------------------|


     Fill 1
E-|--*----------------------------------|         
B-|--15fb-(15ffb)-(15rfb)-13h16p13-12---| 
G-|-------------------------------------| Gtr. 1 
D-|-------------------------------------|
A-|-------------------------------------|
E-|-------------------------------------|
  | *this crazy mess means bend the 15th up a full step, pause, then    
  | continue bending it up another full step, pause, release back down 
  | a full step, so now you should be one full step above the 15th 
  | fret. Also when it is bent in the full 2 step position he slightly 
  | bends it out of tune.               |
E-|-------------------------------------|
B-|-------------------------------------|
G-|-------------------------------------| Gtr. 2
D-|-------------------------------------|
A-|--2----------------------------------|
E-|--0----------------------------------|
  |                                     |
E-|-------------------------------------|
B-|-------------------------------------|
G-|-------------------------------------| Gtr. 3
D-|-------------------------------------|
A-|--2----------------------------------|
E-|--0----------------------------------|

     Fill 2
E-|-------------------------------------|
B-|-------------------------------------|
G-|--12------11--9--8-------------------| Gtr. 1
D-|----------------------9hbr-----------|
A-|-------------------------------------|
E-|-------------------------------------|
  |                                     |
E-|-------------------------------------|
B-|-------------------------------------|
G-|-------------------------------------| Gtr. 2
D-|-(9)-----(7)-(5)(4)------------------|
A-|--7-------5---3--2-------------------|
E-|-------------------------------------|
  |                                     |
E-|-------------------------------------|
B-|-------------------------------------|
G-|-------------------------------------| Gtr. 3(implied guitar harmony)
D-|--5-------4---2--1-------------------|
A-|----------------------3--2-----------|
E-|-------------------------------------|
  |                                     |
E-|-------------------------------------|
B-|-------------------------------------|
G-|-------------------------------------| Gtr. 4
D-|--9-------4---5--4-------------------|
A-|----------------------7--6-----------|
E-|-------------------------------------|

     (Continue Fill 2)
E-|-------------------------------------|
B-|-----------13--12---13---/16---------|
G-|--12---14----------------------------| Gtr. 1
D-|-------------------------------------|
A-|-------------------------------------|
E-|-------------------------------------|
  |                                     |
E-|-------------------------------------|
B-|-------------------------------------|
G-|-------------------------------------| Gtr. 2
D-|-(9)-----(7)-(5)(4)------------------|
A-|--7-------5---3--2-------------------|
E-|-------------------------------------|
  |                                     |
E-|-------------------------------------|
B-|-------------------------------------|
G-|-------------------------------------| Gtr. 3(implied guitar harmony)
D-|--5-------4---2--1-------------------|
A-|----------------------3--2-----------|
E-|-------------------------------------|
  |                                     |
E-|-------------------------------------|
B-|-------------------------------------|
G-|-------------------------------------| Gtr. 4
D-|--9-------4---5--4-------------------|
A-|----------------------7--6-----------|
E-|-------------------------------------|

Play Fill 1 and Fill 2

     Fill 3   
E-|--------------|
B-|--17~~~-------|
G-|--------------|
D-|--------------|
A-|--------------|
E-|--------------|

Play RIFF A and RIFF A-1 two times, first time with Fill 3
Play RIFF B and RIFF B-1 two times

     RIFF J
E-|------------------------------------------------------------------|
B-|------------------------------------------------------------------|
G-|------------------------------------------------------------------|
D-|------------------------------------------------------------------|
A-|--7777-5555-77777777-8888-5555-7777-5555-7777-8888-5555-8888-7777-|
E-|------------------------------------------------------------------|
  |                                                                  |
  |  RIFF K                                                          |
E-|------------------------------------------------------------------|
B-|------------------------------------------------------------------|
G-|------------------------------------------------------------------|
D-|------------------------------------------------------------------|
A-|-------5555-7777-----5555-----------5555-7777-8888-5555-----------|
E-|--0000----------0000------6666-0000---------------------6666-0000-|


     (Continue RIFF J)
E-|------------------------------------------------------------------|
B-|------------------------------------------------------------------|
G-|------------------------------------------------------------------|
D-|------------------------------------------------------------------|
A-|--5555-7777-8888-55555555-888888888888-7777-----------------------|
E-|------------------------------------------------------------------|
  |                                                                  |
  |  (Continue RIFF K)                                               |
E-|------------------------------------------------------------------|
B-|------------------------------------------------------------------|
G-|------------------------------------------------------------------|
D-|-----------------7777-----7777-8888-------------------------------|
A-|--5555-7777-8888-----8888----------5555---------------------------|
E-|----------------------------------------6666-5555-----------------|

Play RIFF J and RIFF K two times

     RIFF J-1
E-|------------------------------------------------------------------|
B-|------------------------------------------------------------------|
G-|------------------------------------------------------------------|
D-|--4444-2222-44444444-5555-2222-4444-2222-4444-5555-2222-5555-4444-|
A-|------------------------------------------------------------------|
E-|------------------------------------------------------------------|
  |                                                                  |
  |  RIFF K-1                                                        |
E-|------------------------------------------------------------------|
B-|------------------------------------------------------------------|
G-|------------------------------------------------------------------|
D-|-------2222-4444-----2222-----------2222-4444-5555-2222-----------|
A-|--------------------------3333--------------------------3333------|
E-|--2222----------2222-----------2222--------------------------2222-|

     (Continue RIFF J-1)
E-|------------------------------------------------------------------|
B-|------------------------------------------------------------------|
G-|------------------------------------------------------------------|
D-|--2222-4444-5555-22222222-555555555555-4444-----------------------|
A-|------------------------------------------------------------------|
E-|------------------------------------------------------------------|
  |                                                                  |
  |  (Continue RIFF K-1)                                             |
E-|------------------------------------------------------------------|
B-|------------------------------------------------------------------|
G-|-----------------4444-----4444-5555-------------------------------|
D-|--2222-4444-5555-----5555----------2222---------------------------|
A-|----------------------------------------3333-2222-----------------|
E-|------------------------------------------------------------------|

Play RIFF J-1 and RIFF K-2 two times

     RIFF J-2
E-|------------------------------------------------------------------|
B-|------------------------------------------------------------------|
G-|--9999-7777-99999999-1010-7777-9999-7777-9999-1010-7777-1010-9999-|
D-|------------------------------------------------------------------|
A-|------------------------------------------------------------------|
E-|------------------------------------------------------------------|
  |                                                                  |
  |  RIFF K                                                          |
E-|------------------------------------------------------------------|
B-|------------------------------------------------------------------|
G-|------------------------------------------------------------------|
D-|---------------------------------------------------7777------7777-|
A-|-------5555-7777-----5555-----------5555-7777-8888------8888------|
E-|--0000----------0000------6666-0000-------------------------------|

     (Continue RIFF J-2)
E-|------------------------------------------------------------------|
B-|------------------------------------------------------------------|
G-|--7777-9999-1010-77777777-101010101010-9999-----------------------|
D-|------------------------------------------------------------------|
A-|------------------------------------------------------------------|
E-|------------------------------------------------------------------|
  |                                                                  |
  |  (Continue RIFF K)                                               |
E-|------------------------------------------------------------------|
B-|------------------------------------------------------------------|
G-|------------------------------------------------------------------|
D-|-----------------7777-----7777-8888-------------------------------|
A-|--5555-7777-8888-----8888----------5555---------------------------|
E-|----------------------------------------6666-5555-----------------|

Play RIFF J-2 and RIFF K two times

     RIFF J-3
E-|------------------------------------------------------------------|
B-|--7777-5555-77777777-8888-5555-7777-5555-7777-8888-5555-8888-7777-|
G-|------------------------------------------------------------------|
D-|------------------------------------------------------------------|
A-|------------------------------------------------------------------|
E-|------------------------------------------------------------------|
  |                                                                  |
  |  RIFF K-1                                                        |
E-|------------------------------------------------------------------|
B-|------------------------------------------------------------------|
G-|------------------------------------------------------------------|
D-|-------2222-4444-----2222-----------2222-4444-5555-2222-----------|
A-|--------------------------3333--------------------------3333------|
E-|--2222----------2222-----------2222--------------------------2222-|

     (Continue RIFF J-3
E-|------------------------------------------------------------------|
B-|--5555-7777-8888-55555555-888888888888-7777-----------------------|
G-|------------------------------------------------------------------|
D-|------------------------------------------------------------------|
A-|------------------------------------------------------------------|
E-|------------------------------------------------------------------|
  |                                                                  |
  |  (Continue RIFF K-1)                                             |
E-|------------------------------------------------------------------|
B-|------------------------------------------------------------------|
G-|-----------------4444-----4444-5555-------------------------------|
D-|--2222-4444-5555-----5555----------2222---------------------------|
A-|----------------------------------------3333-2222-----------------|
E-|------------------------------------------------------------------|

Play RIFF J-3 and RIFF K-1 two times and fade out.

Please send comments, corrections or whatever else at j.rubio@cgac.es    
or . 

Don't forget to ask Jordi for his MOD of this song!!!!
Related for Immortality Is Mine tab