Song name
# A B C D E F G H I J K L M N O P Q R S T U V W X Y Z

Within Temptation - The Cross Acoustic tab

              Within temptation:  the cross (acoustic version)


hola, bueno esta es la primera canción que me atrevo a subir...espero que les guste, 
escuchar la version acustica para ver como van los acordes  bueno?

Hi, this is a very easy song, but you need to hear the acoustic version
 Good luck
Piano intro:
E||-12--11--12---11--12--14--12-11-12-------12--11--12-----------11------|
B||------------14----------------------14-------------14--14--12-----14--|
G||----------------------------------------------------------------------|
D||----------------------------------------------------------------------|
A||----------------------------------------------------------------------|
E||----------------------------------------------------------------------|

Verse:
C#m
Nothing's ever changed, you still turn away
         A                                          F#m
You've washed your hands; you've made that all too clear
                             G#
You just keep on living this lie
C#m
You refuse to see, you're denying me

     A                                                                     the cross I 
but you don't seem to
F#m
care
                        G#
Even Judas knew he had lied
           A
I keep wondering why
            F#                          G#
I'm still calling your name through my tears

E||---------------|
B||---------------|
G||---------------|
D||---------------|
A||--7h6----------|
E||------7--------|

Chorus:
          C #m          A          B            F#
         Why have you waited to embrace me my dear?
         C #m             A        B           G#
         Cold is your silence, denying what is real
                               A
         I'm still wondering why
	 F                              C #m
         I'm still calling your name my dear


           C #m      A           B        A

verse: I' sorry if you can't stand the naked truth
          All you see is how you want it to be
          So you keep on living your life

         Release me from this cross after all these years
         Oh call my name and help me with this weight
         Even though it comes far too late

         I keep wondering why
         I'm still calling your name through my tears


E||---------------|
B||---------------|
G||---------------|
D||---------------|
A||--7h6----------|
E||------7--------|

Chorus:
C #m          A           B            F#
Why have you waited to embrace me my dear?
C #m          A           B            G#
Cold is your silence, denying what is real
	    C #m	             A
I'm still wondering why I'm still calling your name
         B           F#
and I wonder, oh I wonder ...
      C #m                                   A
In my heart I still hope you will open the door
           B	 G#	         A
You can purify it all, answer my call


C #m     A        B        A    x2


E||-------4-----------|
B||--2--4----2--4-----|
G||----------------4--| repeat 6 times
D||-------------------|
A||-------------------|
E||-------------------|

Why? Why?


Chorus:
Why have you waited to embrace me my dear?
Cold is your silence, denying what is real
I'm still wondering why I'm still calling your name
and I wonder, oh I wonder ...

In my heart I still hope you will open the door
You can purify it all, answer my call


E||-12--11--12---11--12--14--12-11-12-------12--11--12-----------11-----|
B||------------14----------------------14-------------14--14--12-----14-|
G||---------------------------------------------------------------------|x2
D||---------------------------------------------------------------------|
A||---------------------------------------------------------------------|
E||---------------------------------------------------------------------|

Chords:

C#m: 446544
A:   577655
G#:  466544
B:   799877
F#:  224322

los acordes en los versos puedes tocarlos con arpegio, o si prefieres puedes usar 
de 5ta.

Hope you like it :)

I've never tabbed anything before so this is my first... but I think it's quite accurate

Any comments:
the_silentforce@hotmail.com
Tap to rate this tab
# A B C D E F G H I J K L M N O P Q R S T U V W X Y Z