Song name
# A B C D E F G H I J K L M N O P Q R S T U V W X Y Z

Within Temptation - Angels tab

Tuning: dropped C

C-G-C-F-A-D

i tried tabbing out the mandolin during the first verse
(i think it's a mandolin) but i couldn't make out all
the notes. but i put down the chords anyway.

verse 1 (clean)
 sparkling angel i believed  you were my savior in my time of need
|-5-----------------------------------------------------|
|-5--------10----12---6-----------------10---------9----|
|-5--------10----12---7-----------------10---------9----|
|-7--------10----12---7-----------------10---------9----|
|-----------8----10---5------------------8---------7----|
|-------------------------------------------------------|

 blinded by faith i couldn't hear  all the whispers the warnings so clear
|-5--------------------------------------------------|
|-5------10---------12-------6---------------9-------|
|-5------10---------12-------7---------------9-------|
|-7------10---------12-------7---------------9-------|
|---------8---------10-------5---------------7-------|
|----------------------------------------------------|

 i see the angels i'll lead them to your door
|-----------------------------|
|-6--------5-----------6------|
|-7--------5-----------5------|
|-7--------5-----------3------|
|-5--------3------------------|
|-----------------------------|

 there's no escape now no mercy no more
|-----------------------|
|10----------9----------|
|10----------9----------|
|10----------9----------|
|-8----------7----------|
|-----------------------|

 no remorse cause i still remember
|-----------------|
|-6---9-----------|
|-7---9-----------|
|-7---9-----------|
|-5---7-----------|
|-----------------|

pre-chorus (electric)
|---------------------------------|
|---------------------------------|
|---------------------------------|
|---------------------------------|
|-3-3-3-3-3-3-3-3-3-3-3-3-3-3-5-5-|
|-3-3-3-3-3-3-3-3-3-3-3-3-3-3-5-5-|
pm- - - - - - - - - - - - - - - -

chorus
|---------------------------------------------|
|---------------------------------------------|
|---------------------------------------5-4---|
|-7----3----5----2----3----0----2----5--x-x---|
|-7----3----5----2----3----0----2----5--3-2---|
|-7----3----5----2----3----0----2----5------5-|

|---------------------------------------------|
|---------------------------------------------|
|------------------------------------7---3----|
|-7----3----5----2----3----0----2----x---x----|
|-7----3----5----2----3----0----2----5---1----|
|-7----3----5----2----3----0----2-------------|

verse 2
|----------------------------------------------|
|----------------------------------------------|
|----------------------------------------------|
|----------------------------------------------|
|-777--777----333--555----000--000----333--222-|
|-777--777----333--555----000--000----333--222-|
pm---  ---    ---  ---    ---  ---    ---  ---

|------------------------------------------------|
|------------------------------------------------|
|------------------------------------------------|
|------------------------------------------------|
|-777--777----333--555----000--000----222----222-|
|-777--777----333--555----000--000----222----222-|
pm---  ---    ---  ---    ---  ---    ---    --

|---------------------------------------------------|
|---------------------------------------------------|
|---------------------------------------------------|
|--------------5--555-------------------------------|
|-0--0000-0----3--3335-5----3--3333-3---2-2--2222-2-|
|-0--0000-0----------5-5----3--3333-3---2-2--2222-2-|
pm-  ---- -    -  ---- -    -  ---- -   - -  ---- -

|-------------------------------------------------------------|
|-------------------------------------------------------------|
|-------------------------------------------------------------|
|-------------------------------------------------------------|
|-0--0000-0---2-2--2222-2---223-3-3-3-3-3-3-3-3-3-3-3-3-3-5-5-|
|-0--0000-0---2-2--2222-2---223-3-3-3-3-3-3-3-3-3-3-3-3-3-5-5-|
pm-  ---- -   - -  ---- -   --- - - - - - - - - - - - - - - -

repeat chorus


|-------------------------------------------------------------|
|-------------------------------------------------------------|
|-------------------------------------------------------------|
|-----------------------------------------------------------7-|
|-000--00000--00222--22222--22333--33333--333-3-3-3-3-3-3-3-7-|
|-000--00000--00222--22222--22333--33333--333-3-3-3-3-3-3-3-7-|
pm---  -----  -----  -----  -----  -----  --- - - - - - - -

piano riff (clean)
|-5--------------     |-5--------------      |-5-------------------|
|---5-6-3-5------ X 3 |---3-5-6-5-3---- X 1  |---5-6-3-5------ X 3-|
|-----------5-4--     |-------------5-4      |-----------5-4-------|
|---------------7     |----------------      |---------------7-----|
|----------------     |----------------      |---------------------|
|----------------     |----------------      |---------------------|

bridge (electric)
|--------------------------------------------------------------|
|--------------------------------------------------------------|
|------------------------5----------------------------5--------|
|-----------------3------5------5------0----2--3------5-----5--|
|-3-3-3-3-3-3-3-3-3------3------5------0----2--3------3-----5--|
|-3-3-3-3-3-3-3-3-3-------------5------0----2--3------------5--|
pm- - - - - - - -
                         'the smile when you tour me apart'
|------------------------------------------------------|
|------------------------------------------------------|
|------------------------------------------------------|
|-----------------7------------------------------------|
|-0-0-0-0-0-0-0-0-7-----------33-------------5--5--555-|
|-0-0-0-0-0-0-0-0-7-----------33-------------5--5--555-|
pm- - - - - - - -             --             -  -  ---

repeat chorus


|-------------------------------------------------------------|
|-------------------------------------------------------------|
|-------------------------------------------------------------|
|-----------------------------------------------------------7-|
|-000--00000--00222--22222--22333--33333--333-3-3-3-3-3-3-3-7-|
|-000--00000--00222--22222--22333--33333--333-3-3-3-3-3-3-3-7-|
pm---  -----  -----  -----  -----  -----  --- - - - - - - -

piano outro (clean)
|-5---------------5---------------5-----------------|
|---5-6-3-5---------5-6-3-5---------5-6-3-5---------|
|-----------5-4-------------5-4-------------5-4-5---|
|---------------7---------------7-----------------7-|
|---------------------------------------------------|
|---------------------------------------------------|

end
Tap to rate this tab
# A B C D E F G H I J K L M N O P Q R S T U V W X Y Z