Song name
# A B C D E F G H I J K L M N O P Q R S T U V W X Y Z

Within Temptation - Forgiven tab

Help us improve GuitareTab! Take a short survey!
OKAY.... One day I got bored. I learned the song forgiven By within temptation on the
Then I Used the piano piece and starting playing it on my guitar. It is a really easy tab
you gotta do is follow these tabs.


E----------18-----17-----13--10------10-10--8-8--10------------|
A--------------------------------------------------------------|
D--------------------------------------------------------------|
G--------------------------------------------------------------|
B--------------------------------------------------------------|
E--------------------------------------------------------------|

E-----------6------5------1-------------------1-1--------------|
A------------------------------3---------3-3-------3-----------|
D--------------------------------------------------------------|
G--------------------------------------------------------------|
B--------------------------------------------------------------|
E--------------------------------------------------------------|

E-------------3----------3------6----5---6----------5----6-----|
A------6-----------6-------------------------------------------|
D--------------------------------------------------------------|
G--------------------------------------------------------------|
B--------------------------------------------------------------|
E--------------------------------------------------------------|

E-------3-------------3----------------------------------------|
A--------------6-----------------------------------------------|
D--------------------------------------------------------------|
G--------------------------------------------------------------|
B--------------------------------------------------------------|
E--------------------------------------------------------------|

E----------------3-----------3-------6--5--6----5--5-----------|
A--------6------------6-----------------------------------6----|
D--------------------------------------------------------------|
G--------------------------------------------------------------|
B--------------------------------------------------------------|
E--------------------------------------------------------------|

E-------3----------3---------------3-------6-----6-----6-------|
A-------------6---------------6--------------------------------|
D--------------------------------------------------------------|
G--------------------------------------------------------------|
B--------------------------------------------------------------|
E--------------------------------------------------------------|

E------5-----------------5-----------3----------3--------------|
A--------------------6-----------6----------6------------------|
D--------------------------------------------------------------|
G--------------------------------------------------------------|
B--------------------------------------------------------------|
E--------------------------------------------------------------|

E-------5------3---5------5--------5---------5-----8-----5-----|
A-------------------------------------------6------------------|
D--------------------------------------------------------------|
G--------------------------------------------------------------|
B--------------------------------------------------------------|
E--------------------------------------------------------------|

If you need to learn the rest..... on this site search forgiven by within temptation
you find a guitar pro version that includes the keyboard one and two. once it loads up
on piano one and then you can use those tabs for your guitar. Hope you enjoy! and I hope 
get alot of hits for this one!!!

I g2g now.....
PEACE OUT!!!!!!!!!!!!!
Related for Forgiven tab