Song name
# A B C D E F G H I J K L M N O P Q R S T U V W X Y Z

Within Temptation - Are You The One tab

Band Name: Within Temptation
Song Title: Are You The One
Standard Tuning

Tabbed By: Zaid Daba'een

0:00
Are you the one?            The traveller    Come           To heal
e|-------------------3-----3---------3-----3---------5-----5-----2---3---2-3-|
B|---------------5-------5-------5-------5-------7-------7-------------------|
G|-------------4---4---4-------4---4---4-------7---7---7-------4---4---4-----|
D|-----------2---------------2---------------7---------------4---------------|
A|---------------------------------------------------------------------------|
E|---------------------------------------------------------------------------|
 
 Sun             To walk         End          Of time            Are you
e|--------3-----3---------2-----2---------2-----2---------2-----2---------3--|
B|----5-------5-------5-------5-------5-------5-------5-------5-------5------|
G|--4---4---4-------4---4---4-------4---4---4-------4---4---4-------4---4---4|
D|5---------------4---------------4---------------4---------------2----------|
A|---------------------------------------------------------------------------|
E|---------------------------------------------------------------------------|

      Who             Fireflies       Eternity        Sky             Facing
e|---3---------3-----3---------5-----5-----2---3---2-3---------3-----3-------|
B|-5-------5-------5-------7-------7-----------------------5-------5-------5-|
G|-------4---4---4-------7---7---7-------4---4---4-------4---4---4-------4---|
D|-----2---------------7---------------4---------------5---------------4-----|
A|---------------------------------------------------------------------------|
E|---------------------------------------------------------------------------|

                                           0:56
           Eye                             Are you         Who'd share     Who'd Dive
e|--2-----2---------2-----2---------2-----2---------3-----3---------3-----3--|              -
B|------5-------5-------5-------5-------5-------5-------5-------5-------5----|               |
G|4---4-------4---4---4-------4---4---4-------4---4---4-------4---4---4------|               |
D|----------4---------------4---------------2---------------2---------------7|               |
A|---------------------------------------------------------------------------|               |
E|---------------------------------------------------------------------------|               |
                                                                                             |
e|---------------------------------------------------------------------------|\              |
B|---------------------------------------------------------------------------| \             |
G|---------------------------------------------------------------------------|  \Guitar 2    |
D|------------------------------------------2--------------------------------|  /Overdriven  |
A|------------------------------------------2---------------2-------0-------2| /             |
E|------------------------------------------0--------------------------------|/             -

                With me         Are you         Who's had       And doesn't
e|-------5-----5-----2---3---2-3---------3-----3---------3-----3---------5---|              -
B|---7-------7-----------------------5-------5-------5-------5-------7-------|               |
G|-7---7---7-------4---4---4-------4---4---4-------4---4---4-------7---7---7-|               |
D|---------------4---------------2---------------2---------------7-----------|               |
A|---------------------------------------------------------------------------|               |
E|---------------------------------------------------------------------------|               |
                                                                                             |
e|---------------------------------------------------------------------------|\              |
B|---------------------------------------------------------------------------| \             |
G|---------------------------------------------------------------------------|  \Guitar 2    |
D|-------------------------------2-------------------------------------------|  /Overdriven  |
A|-------3-------5---------------2---------------2-------0-------2-------3---| /             |
E|-------------------------------0-------------------------------------------|/             -

                                                     1:29
     The shame       Anymore                         Are you
e|--5-----2---3---2-3---------3-----3---------3-----3---------3-----3--------|              -
B|7-----------------------5-------5-------5-------5-------5-------5-------5--|               |
G|------4---4---4-------4---4---4-------4---4---4-------4---4---4-------4---4|               |
D|----4---------------2---------------2---------------2---------------2------|               |
A|---------------------------------------------------------------------------|               |
E|---------------------------------------------------------------------------|               |
                                                                                             |
e|---------------------------------------------------------------------------|\              |
B|---------------------------------------------------------------------------| \             |
G|---------------------------------------------------------------------------|  \Guitar 2    |
D|---------------------------------------------------------------------------|  /Overdriven  |
A|-5-------------------------------------------------------------------------| /             |
E|---------------------------------------------------------------------------|/              |
                                                                                             |
e|---------------------------------------------------------------------------|\              |
B|---------------------------------------------------------------------------| \             |
G|--------------------------------------------------------------------4------|  \Guitar 3    |
D|---------------------------------------------------------------------------|  /            |
A|---------------------------------------------------------------------------| /             |
E|---------------------------------------------------------------------------|/             -

                   1:39
          Are you         Whose love                      To wash  
e|-3-----3---------3-----3---------3-----3---------5-----5-----2---3---2-3---|              -
B|-----5-------5-------5-------5-------5-------7-------7---------------------|               |
G|---4-------4---4---4-------4---4---4-------7---7---7-------4---4---4-------|               |
D|---------2---------------2---------------7---------------4---------------5-|               |
A|---------------------------------------------------------------------------|               |
E|---------------------------------------------------------------------------|               |
                                                                                             |
e|---------------------------------------------------------------------------|\              |
B|-----------------5---------------------------------------------------------| \             |
G|-------------------------8-9-----------------------------------------------|  \Guitar 3    |
D|-----------------------9---------------------------------------------------|  /            |
A|---------------------------------------------------------------------------| /             |
E|---------------------------------------------------------------------------|/             -

                                                               2:04
               Which sometimes                                 Are you
e|------3-----3---------2-----2---------2-----2---------2-----2---------3----|
B|--5-------5-------5-------5-------5-------5-------5-------5-------5--------|
G|4---4---4-------4---4---4-------4---4---4-------4---4---4-------4---4---4--|
D|--------------4---------------4---------------4---------------2------------|
A|---------------------------------------------------------------------------|
E|---------------------------------------------------------------------------|
Tap to rate this tab
# A B C D E F G H I J K L M N O P Q R S T U V W X Y Z