Song name
# A B C D E F G H I J K L M N O P Q R S T U V W X Y Z

Within Temptation - Utopia tab

Song: Utopia
Artist: Within Temptation
Album: An Acoustic Night at the Theatre
Tabbed by: _Jacco
Tuning: 1/2 down

In the beginning I thought the rythm was a little bit tricky, but once you get it, 
it's not that hard.

Good luck,
Jacco

Order of playing:
Intro
Verse (x2)
Bridge
Chorus (x2)
Verse (x2)
Bridge
Chorus (x2)
Bridge 2
Chorus (x2)
Final Chord


Intro:

e|2-----2---2-|3-----3---3-|2-----2---2-|3-----3---3-|
B|3-----3---3-|3-----3---3-|3-----3---3-|3-----3---3-|
G|0-----0---0-|0-----0---0-|0-----0---0-|0-----0---0-|
D|------------|------------|------------|------------|
A|------------|------------|------------|------------|
E|------------|------------|------------|------------|





Verse, including lyrics for the other three times it is played.

e|2-----2---2-|3-----3---3-|2-----2---2-|3-----3---3-|
B|3-----3---3-|3-----3---3-|3-----3---3-|3-----3---3-|
G|0-----0---0-|0-----0---0-|0-----0---0-|0-----0---0-|
D|------------|------------|------------|------------|
A|------------|------------|------------|------------|
E|------------|------------|------------|------------|
The burning    desire to    live and roam free
(I'm dreaming in colors of getting the chance)

(I'm searching for answers not given for free)
(I'm dreaming in colors, no boundaries are there)


e|2-----2---2-|3-----3---3-|2-----2---2-|3-----3---3-|
B|3-----3---3-|3-----3---3-|3-----3---3-|3-----3---3-|
G|4-----4---4-|4-----4---4-|4-----4---4-|4-----4---4-|
D|4-----4---4-|4-----4---4-|4-----4---4-|4-----4---4-|
A|------------|------------|------------|------------|
E|------------|------------|------------|------------|
It shines in the dark and it grows within me
(I'm dreaming of China; the perfect romance)

(You're hurting inside, is there life within me?)
(I'm dreaming the dream, and I'll sing to share)


e|2-----2---2-|3-----3---3-|2-----2---2-|3-----3---3-|
B|3-----3---3-|3-----3---3-|3-----3---3-|3-----3---3-|
G|5-----5---5-|5-----5---5-|5-----5---5-|5-----5---5-|
D|5-----5---5-|5-----5---5-|5-----5---5-|5-----5---5-|
A|------------|------------|------------|------------|
E|------------|------------|------------|------------|
You're holding my hand but you don't understand
(In search of the door to   open your    mind)

(You're holding my hand but you don't understand)
(In search of the door, to  open your    mind)

e|2-----2---2-|3-----3---3-|2-----2---2-|3-----3---3-|
B|3-----3---3-|3-----3---3-|3-----3---3-|3-----3---3-|
G|2-----2---2-|2-----2---2-|2-----2---2-|2-----2---2-|
D|0-----0---0-|0-----0---0-|0-----0---0-|0-----0---0-|
A|------------|------------|------------|------------|
E|------------|------------|------------|------------|
So where I am  going, you   won't be in the end
(In search of the cure of mankind       help us we're)

(So you're taking the road all alone in the end)
(In search of the cure of mankind       help us we're)






Bridge:

e|0-----0---0-|0-----0---0-|0-----0---0-|0-----0---0-|
B|1-----1---1-|1-----1---1-|1-----1---1-|1-----1---1-|
G|2-----2---2-|2-----2---2-|2-----2---2-|2-----2---2-|
D|2-----2---2-|2-----2---2-|2-----2---2-|2-----2---2-|
A|0-----0---0-|0-----0---0-|0-----0---0-|0-----0---0-|
E|------------|------------|------------|------------|
 drow         -ning                   So close up in-    


e|3-----3---3-|2-----2---2-|0-----0---0-|2-----2---2-|
B|3-----3---3-|3-----3---3-|3-----3---3-|3-----3---3-|
G|2-----2---2-|2-----2---2-|2-----2---2-|2-----2---2-|
D|0-----0---0-|0-----0---0-|0-----0---0-|0-----0---0-|
A|------------|------------|------------|------------|
E|------------|------------|------------|------------|
  side                                   Why does it







Chorus:

e|3-----3---3-|3-----3---3-|3-----3---3-|3-----3---3-|
B|3-----3---3-|3-----3---3-|3-----3---3-|3-----3---3-|
G|4-----4---4-|4-----4---4-|4-----4---4-|4-----4---4-|
D|5-----5---5-|5-----5---5-|5-----5---5-|5-----5---5-|
A|5-----5---5-|5-----5---5-|5-----5---5-|5-----5---5-|
E|3-----3---3-|3-----3---3-|3-----3---3-|3-----3---3-|
  rain         rain         rain         down on U-
( rain         rain         rain         down on U-)

e|2-----2---2-|3-----3---3-|2-----2---2-|3-----3---3-|
B|3-----3---3-|3-----3---3-|3-----3---3-|3-----3---3-|
G|4-----4---4-|4-----4---4-|4-----4---4-|4-----4---4-|
D|4-----4---4-|4-----4---4-|4-----4---4-|4-----4---4-|
A|------------|------------|------------|------------|
E|------------|------------|------------|------------|
  topia?                                  Why does it
( topia?                                  How will the)
   
e|2-----2---2-|3-----3---3-|2-----2---2-|3-----3---3-|
B|0-----0---0-|0-----0---0-|0-----0---0-|0-----0---0-|
G|0-----0---0-|0-----0---0-|0-----0---0-|0-----0---0-|
D|2-----2---2-|2-----2---2-|2-----2---2-|2-----2---2-|
A|2-----2---2-|2-----2---2-|2-----2---2-|2-----2---2-|
E|0-----0---0-|0-----0---0-|0-----0---0-|0-----0---0-|
  have         to           kill         the idea of 
( lights       die          down         telling us)

e|2-----2---2-|3-----3---3-|2-----2---2-|3-----3---3-|
B|3-----3---3-|3-----3---3-|3-----3---3-|3-----3---3-|
G|2-----2---2-|2-----2---2-|2-----2---2-|2-----2---2-|
D|0-----0---0-|0-----0---0-|0-----0---0-|0-----0---0-|
A|------------|------------|------------|------------|
E|------------|------------|------------|------------|
  who we are?                            Why does it
( who we are?                                        )






Bridge 2

e|3-----------|------------|------------|------------|
B|3-----------|------------|------------|------------|
G|4-----------|------------|------------|------------|
D|4-----------|------------|------------|------------|
A|5-----------|------------|------------|------------|
E|3-----------|------------|------------|------------|

e|2-----------|------------|------------|------------|
B|3-----------|------------|------------|------------|
G|4-----------|------------|------------|------------|
D|4-----------|------------|------------|------------|
A|2-----------|------------|------------|------------|
E|2-----------|------------|------------|------------|


e|3-----------|------------|------------|------------|
B|0-----------|------------|------------|------------|
G|0-----------|------------|------------|------------|
D|2-----------|------------|------------|------------|
A|2-----------|------------|------------|------------|
E|0-----------|------------|------------|------------|

e|2-----2---2-|3-----3---3-|2-----2---2-|3-----3---3-|
B|3-----3---3-|3-----3---3-|3-----3---3-|3-----3---3-|
G|2-----2---2-|2-----2---2-|2-----2---2-|2-----2---2-|
D|0-----0---0-|0-----0---0-|0-----0---0-|0-----0---0-|
A|------------|------------|------------|------------|
E|------------|------------|------------|------------|
                                         Why does it




Final chord:

e|3-----------|------------|------------|------------|
B|3-----------|------------|------------|------------|
G|4-----------|------------|------------|------------|
D|4-----------|------------|------------|------------|
A|5-----------|------------|------------|------------|
E|3-----------|------------|------------|------------|
  rain?
Tap to rate this tab
# A B C D E F G H I J K L M N O P Q R S T U V W X Y Z