Song name
# A B C D E F G H I J K L M N O P Q R S T U V W X Y Z

Within Temptation - All I Need tab

Drop D tuning, the song All I Need by within temptation, i have the intro then basic 
chords for the base line to the rest of the song, enjoy and rate!!


E||----------------------------------------------------------------|
B||----------------------------------------------------------------|
G||------0---2h3h2-----0---2h3h2--------0---2-0--------0---2h3h2---|
D||----0---0---------0---0-------3----1---1-----1----1---1-------3-|
A||----------------------------------------------------------------|
E||--5-------------5----------------1-------------1-3--------------|X6


    Can you  still  see the heart of   me?
E||------------------------------------------------------------------X-|
B||------------------------------------------------------------------X-|
G||------------------------------------------------------------------X-|
D||-1-1-1-1--3-3---5-5-5-5-----3-3----1-1-1----------------------------|
A||-1-1-1-1--3-3---5-5-5-5-----3-3----1-1-1----------------------------|
E||-1-1-1-1--3-3---5-5-5-5-----3-3----1-1-1----------------------------|

    All my agony fades away when you hold me in your embrace
E||----------------------------------------------------------------X-|
B||----------------------------------------------------------------X-|
G||----------------------------------------------------------------X-|
D||--1--1--1--1----------------------3--3--3--3---------8------------|
A||--1--1--1--1----------------------3--3--3--3---------8------------|
E||--1--1--1--1----------------------3--3--3--3---------8------------|

    Dont  tear  me  down  for  all  i  need
E||----------------------------------------------------------------X-|
B||----------------------------------------------------------------X-|
G||----------------------------------------------------------------X-|
D||-8--8--8--8--7--7--5--5--5--5--5--3--3--1-------------------------|
A||-8--8--8--8--7--7--5--5--5--5--5--3--3--1-------------------------|
E||-8--8--8--8--7--7--5--5--5--5--5--3--3--1-------------------------|

   Make my heart a better place give me something i can believe
E||----------------------------------------------------------------X-|
B||----------------------------------------------------------------X-|
G||----------------------------------------------------------------X-|
D||--1---1---1---1---1---3---3---3---3---3---3---7---7---8-----------|
A||--1---1---1---1---1---3---3---3---3---3---3---7---7---8-----------|
E||--1---1---1---1---1---3---3---3---3---3---3---7---7---8-----------|


   Dont   tear   me    down           you've opened the door
E||----------------------------------------------------------------X-|
B||----------------------------------------------------------------X-|
G||----------------------------------------------------------------X-|
D||-8--8--8--8--7--7--5--5--5--5--5--3--3--1--1---1---1---1----------|
A||-8--8--8--8--7--7--5--5--5--5--5--3--3--1--1---1---1---1----------|
E||-8--8--8--8--7--7--5--5--5--5--5--3--3--1--1---1---1---1----------|

    Now dont let it close
E||----------------------------------------------------------------X-|
B||----------------------------------------------------------------X-|
G||----------------------------------------------------------------X-|
D||--3--3--3--3--3--5--5--5--3--1--1--3------------------------------|
A||--3--3--3--3--3--5--5--5--3--1--1--3------------------------------|
E||--3--3--3--3--3--5--5--5--3--1--1--3------------------------------|
Tap to rate this tab
 
# A B C D E F G H I J K L M N O P Q R S T U V W X Y Z