Song name
# A B C D E F G H I J K L M N O P Q R S T U V W X Y Z

Within Temptation - Faster tab

-------------------------------------------------------------------------------
                         Within Temptation - Faster
-------------------------------------------------------------------------------
Tabbed by: guitargreenday (Krzysiek Paliga - http://kpaliga.pl)
Email: k@kpaliga.pl OR drajvver@gmail.com
Listen / View: http://www.youtube.com/watch?v=VYG41wiFgTA

Tuning: Standard D (DGCFAD)


Intro
D||----------------------|----------------------|----------------------|
A||----------------------|----------------------|----------------------|
F||----------------------|----------------------|----------------------|
C||----------------------|----------------------|----------------------|
G||--4----6----6----7----|--6---------6----6----|--7----6---------6----|
D||----------------------|-------4--------------|------------7---------|



----------------------|----------------------|
----------------------|----------------------|
----------------------|----------------------|
----------------------|----------------------|
--6----7----9----7----|--6----7----6----4----|
----------------------|----------------------|

Verse / Chorus

D||-----------------|-------|
A||-----------------|-------|
F||--6----4---------|-------|
C||--6----4----4----|-------|
G||--4----2----4----|-------|
D||------------2----|-------|

Solo (not perfect, figure out the tempo and rhytm by yourself, shouldn't be hard):

----------------------|-----------------------|------------------------|
----------------------|-----------------------|-------10----9----10----|
--6----8----9----8----|--9----11----9----8----|--6---------------------|
----------------------|-----------------------|------------------------|
----------------------|-----------------------|------------------------|
----------------------|-----------------------|------------------------|



-------------------------|-----------------------|----------------------|
--10br----9----7----9----|--5----5----10----9----|--5----7----4---------|
-------------------------|-----------------------|-----------------4----|
-------------------------|-----------------------|----------------------|
-------------------------|-----------------------|----------------------|
-------------------------|-----------------------|----------------------|



----------------------|----------------------|----------------------|
----------------------|----------------------|-------4----5----9----|
--4--------------2----|--4----6----4----2----|--4-------------------|
-------6----6---------|----------------------|----------------------|
----------------------|----------------------|----------------------|
----------------------|----------------------|----------------------|



-----------------7----|--9----------9--11--9--11--|
--7----5--------------|-------12------------------|
------------8---------|---------------------------|
----------------------|---------------------------|
----------------------|---------------------------|
----------------------|---------------------------|



--12--11--12--16--17--14----------|--------------|------21--|-----||
--------------------------17--16--|--17--14------|some------|-----||
----------------------------------|----------15--|improv----|-----||
----------------------------------|--------------|here------|-----||
----------------------------------|--------------|----------|-----||
----------------------------------|--------------|----------|-----||
Tap to rate this tab
 
# A B C D E F G H I J K L M N O P Q R S T U V W X Y Z