Song name
# A B C D E F G H I J K L M N O P Q R S T U V W X Y Z

Within Temptation - Faster tab

-------------------------------------------------------------------------------
                         Within Temptation - Faster
-------------------------------------------------------------------------------
Tabbed by: bangypoo
Tuning: Standard D (DADGBE)
havent figured out the solo yet


Intro   Repeat  *continue strumming in between notes
E||-------------------|-----------------|---------------------------|
B||-------------------|-----------------|---------------------------|
G||-------------------|-----------------|---------------------------|
D||-------------------|-----------------|---------------------------|
A||2*-2-4-2-4-5-4-----|---4---4-5-4-----|--4---4-5-4------4-5-7-5-4-|
D||-----------------4*|-4---4-------0*--|-0---0-------4-4-----------|
     

next part  palm muted/strumming listen to song for changes, easy enough
----------------------|----------------------|
----------------------|----------------------|
----------------------|----------------------|
----------------------|----------------------|
--2----0--------------|--6----7----6----4----|
-------------2----0---|----------------------|

Verse / Chorus

E||---------------------|
B||---------------------|
G||--4----2-------------|
D||--4----2----2----0--4|
A||--2----0----2----0--4|
D||------------2----0--4|
Tap to rate this tab
 
# A B C D E F G H I J K L M N O P Q R S T U V W X Y Z