Song name
# A B C D E F G H I J K L M N O P Q R S T U V W X Y Z

Within Temptation - Running Up That Hill tab

Within Temptation "Running Up That Hill" Guitar tab tabbed by thecoverguitarist

Tuning: Dropped-B-F#-B-E-G#-C#

intro
C#---------------------------------------------------------------------------------|
G#---------------------------------------------------------------------------------|
E----------------------------------------------------------------------------------|
B-------------1--1-1--1--1--1-1-3--3-3--3--3--3-3-5--5-5--5--5--5-5--5-7-8-7--7-7--|
F#---Slide----1--1-1--1--1--1-1-3--3-3--3--3--3-3-5--5-5--5--5--5-5--5-7-8-7--7-7--|
B--1///15\\1--1--1-1--1--1--1-1-3--3-3--3--3--3-3-5--5-5--5--5--5-5--5-7-8-7--7-7--|
PM               . .        . .    . .        . .    . .        . .           . .

C#------------------------------------------|
G#------------------------------------------|
E-------------------------------------------|
B--1--1-1--1--1--1-1-3--3-3--3-/-12-10-8-5--|
F#-1--1-1--1--1--1-1-3--3-3--3-/-12-10-8-5--|
B--1--1-1--1--1--1-1-3--3-3--3-/-12-10-8-5--|
PM    . .        . .    . .
_________________________________________________________________________________________

Verse
C#---------------------------------------------------|
G#---------------------------------------------------|
E----------------------------------------------------|
B--1--1-1--3--7-5--5--5-7-5--1--1-1--3--7-5--5--5-5--|
F#-1--1-1--3--7-5--5--5-7-5--1--1-1--3--7-5--5--5-5--|
B--1--1-1--3--7-5--5--5-7-5--1--1-1--3--7-5--5--5-5--|

C#--------------------------------------------------|
G#--------------------------------------------------|
E----------------------------8---7---5--------------|
B--1--1-1--3--7-5--5--5-7-5--x---x---x------8----7--|
F#-1--1-1--3--7-5--5--5-7-5--6---5---3------6----5--|
B--1--1-1--3--7-5--5--5-7-5-------------------------|
________________________________________________________________________________________

Chorus 1
C#----------------------------------------------------------------------|
G#----------------------------------------------------------------------|
E-----------------------------------------------------------------------|
B--1--1-1--1--1--1-1-0--0-0--0--0--0-0-5--5-5--5--5--5-5--5-7-8-7--7-7--|
F#-1--1-1--1--1--1-1-0--0-0--0--0--0-0-5--5-5--5--5--5-5--5-7-8-7--7-7--|
B--1--1-1--1--1--1-1-0--0-0--0--0--0-0-5--5-5--5--5--5-5--5-7-8-7--7-7--|
PM    . .        . .    . .        . .    . .        . .           . .

C#-------------------------------------------------------------------------------------|
G#-------------------------------------------------------------------------------------|
E--------------------------------------------------------------------------------------|
B--1--1-1--1--1--1-1-3--3-3--3--3--3-3-5--5-5--5--5--5-5--5-7-8-7---1----0-----5----5--|
F#-1--1-1--1--1--1-1-3--3-3--3--3--3-3-5--5-5--5--5--5-5--5-7-8-7---1----0-----5----5--|
B--1--1-1--1--1--1-1-3--3-3--3--3--3-3-5--5-5--5--5--5-5--5-7-8-7---1----0-----5----5--|
PM    . .        . .    . .        . .    . .        . .
_______________________________________________________________________________________

Verse 2
C#---------------------------------------------------|
G#---------------------------------------------------|
E----------------------------------------------------|
B-------------7-5--5--5-7-5--1--1-1--3--7-5--5--5-5--|
F#------------7-5--5--5-7-5--1--1-1--3--7-5--5--5-5--|
B-------------7-5--5--5-7-5--1--1-1--3--7-5--5--5-5--|

C#---------------------------------------------------|
G#---------------------------------------------------|
E----------------------------------------------------|
B--1--1-1--3--7-5--5--5-7-5--1--1-1--3--7-5--5--5-5--|
F#-1--1-1--3--7-5--5--5-7-5--1--1-1--3--7-5--5--5-5--|
B--1--1-1--3--7-5--5--5-7-5--1--1-1--3--7-5--5--5-5--|

C#--------------------------------------------------|
G#--------------------------------------------------|
E----------------------------8---7---5--------------|
B--1--1-1--3--7-5--5--5-7-5--x---x---x------8----7--|
F#-1--1-1--3--7-5--5--5-7-5--6---5---3------6----5--|
B--1--1-1--3--7-5--5--5-7-5-------------------------|
_______________________________________________________________________________________

Chorus 2
C#----------------------------------------------------------------------|
G#----------------------------------------------------------------------|
E-----------------------------------------------------------------------|
B--1--1-1--1--1--1-1-0--0-0--0--0--0-0-5--5-5--5--5--5-5--5-7-8-7--7-7--|
F#-1--1-1--1--1--1-1-0--0-0--0--0--0-0-5--5-5--5--5--5-5--5-7-8-7--7-7--|
B--1--1-1--1--1--1-1-0--0-0--0--0--0-0-5--5-5--5--5--5-5--5-7-8-7--7-7--|
PM    . .        . .    . .        . .    . .        . .           . .

C#---------------------------------------------------------------------------------|
G#---------------------------------------------------------------------------------|
E----------------------------------------------------------------------------------|
B--1--1-1--1--1--1-1-3--3-3--3--3--3-3-5--5-5--5--5--5-5---------------------------|
F#-1--1-1--1--1--1-1-3--3-3--3--3--3-3-5--5-5--5--5--5-5---------------------------|
B--1--1-1--1--1--1-1-3--3-3--3--3--3-3-5--5-5--5--5--5-5--5-5-5-7-7-7-8-8-8-7-7-7--|
PM    . .        . .    . .        . .    . .        . .  . . . . . . . . . . . .

C#---------------------------------------------------------------------|
G#---------------------------------------------------------------------|
E---------------------------------------------------------12-14-15-14--|
B--1--1-1--1--1--1-1-0--0-0--0--0--0-0-5--5-5--5--5--5-5--x--x--x--x---|
F#-1--1-1--1--1--1-1-0--0-0--0--0--0-0-5--5-5--5--5--5-5--10-12-13-12--|
B--1--1-1--1--1--1-1-0--0-0--0--0--0-0-5--5-5--5--5--5-5---------------|
PM    . .        . .    . .        . .    . .        . .

C#--------------------------------------|
G#--------------------------------------|
E---------------------------------------|
B--8--8-8--8--8--8-8-3--3-3--3--3----5--|
F#-8--8-8--8--8--8-8-3--3-3--3--3----5--|
B--8--8-8--8--8--8-8-3--3-3--3--3----5--|
PM    . .        . .    . .
________________________________________________________________________________________
Pauze
________________________________________________________________________________________

Intro
C#---------------------------------------------------------------------------------|
G#---------------------------------------------------------------------------------|
E----------------------------------------------------------------------------------|
B-------------1--1-1--1--1--1-1-3--3-3--3--3--3-3-5--5-5--5--5--5-5--5-7-8-7--7-7--|
F#---Slide----1--1-1--1--1--1-1-3--3-3--3--3--3-3-5--5-5--5--5--5-5--5-7-8-7--7-7--|
B--1///15\\1--1--1-1--1--1--1-1-3--3-3--3--3--3-3-5--5-5--5--5--5-5--5-7-8-7--7-7--|
PM               . .        . .    . .        . .    . .        . .           . .

C#---------------------------------------------------------------------------------|
G#---------------------------------------------------------------------------------|
E----------------------------------------------------------------------------------|
B--1--1-1--1--1--1-1-3--3-3--3--3--3-3-5--5-5--5--5--5-5---------------------------|
F#-1--1-1--1--1--1-1-3--3-3--3--3--3-3-5--5-5--5--5--5-5---------------------------|
B--1--1-1--1--1--1-1-3--3-3--3--3--3-3-5--5-5--5--5--5-5--5-5-5-7-7-7-8-8-8-7-7-7--|
PM    . .        . .    . .        . .    . .        . .  . . . . . . . . . . . .

C#----------------------------------------------------------------------|
G#----------------------------------------------------------------------|
E-----------------------------------------------------------------------|
B--1--1-1--1--1--1-1-0--0-0--0--0--0-0-5--5-5--5--5--5-5--5-7-8-7--7-7--|
F#-1--1-1--1--1--1-1-0--0-0--0--0--0-0-5--5-5--5--5--5-5--5-7-8-7--7-7--|
B--1--1-1--1--1--1-1-0--0-0--0--0--0-0-5--5-5--5--5--5-5--5-7-8-7--7-7--|
PM    . .        . .    . .        . .    . .        . .           . .

C#----------------------------------------------------------------------------------------------|
G#----------------------------------------------------------------------------------------------|
E----------------------------------------------------------------------------15-15-15-15-15-15--|
B--1--1-1--1--1--1-1-3--3-3--3--3--3-3-5--5-5--5--5--5-5---------------------x--x--x--x--x--x---|
F#-1--1-1--1--1--1-1-3--3-3--3--3--3-3-5--5-5--5--5--5-5---------------------13-13-13-13-13-13--|
B--1--1-1--1--1--1-1-3--3-3--3--3--3-3-5--5-5--5--5--5-5--5-5-5-7-7-7-8-8-8---------------------|
PM    . .        . .    . .        . .    . .        . .  . . . . . . . . .

Outro
C#-----------------------------------------------------------------------------------------------|
G#-----------------------------------------------------------------------------------------------|
E-------------------------------------------------------------------------------------12-14-15-14|
B---------1---------1-------1---------3---------3------3---------5---------5-------5--x--x--x--x-|
F#-1-1-1--1--1-1-1--1--1-1--1--3-3-3--3--3-3-3--3--3-3-3--5-5-5--5--5-5-5--5--5-5--5--10-12-13-12|
B--1-1-1--1--1-1-1--1--1-1--1--3-3-3--3--3-3-3--3--3-3-3--5-5-5--5--5-5-5--5--5-5--5-------------|
PM . . .     . . .     . .     . . .     . . .     . .  . . .     . . .     . .

C#-----------------|
G#-----------------|
E------------------|
B--8----3----5~~~~-|
F#-8----3----5~~~~-|
B--8----3----5~~~~-|

The End ^^
Tap to rate this tab
 
# A B C D E F G H I J K L M N O P Q R S T U V W X Y Z