Song name
# A B C D E F G H I J K L M N O P Q R S T U V W X Y Z

Within Temptation - Mother Earth tab

Within Temptation "Mother Earth" Guitar Tab tabbed thecoverguitarist

drop-C-G-C-F-A-D Tuning

verse 1
D-------------------------------------------|
A-------------------------------------------|
F-------------------------------------------|
C--8--8-8-8--8--8-8-8--8--8-8-8--8----------|
G--6--6-6-6--6--6-6-6--6--6-6-6--6-4-4-4-4--|
C-----x-x-x-----x-x-x-----x-x-x----4-4-4-4--|
PM    . . .     . . .     . . .    . . . .


D------------------------------------------|
A------------------------------------------|
F------------------------------------------|
C--8--8-8-8--8--8-8-8--8--8-8-8--8---------|
G--6--6-6-6--6--6-6-6--6--6-6-6--6--9-8-4--|
C-----x-x-x-----x-x-x-----x-x-x------------|
PM    . . .     . . .     . . .

D-------------------------------------------|
A-------------------------------------------|
F-------------------------------------------|
C--8--8-8-8--8--8-8-8--8--8-8-8--8----------|
G--6--6-6-6--6--6-6-6--6--6-6-6--6-4-4-4-4--|
C-----x-x-x-----x-x-x-----x-x-x----4-4-4-4--|
PM    . . .     . . .     . . .    . . . .

Bridge
D----------------------------|
A----------------------------|
F----------------------------|
C--6---6--4---4--3---3--8-8--|
G--6-6-6--4-4-4--3-3-3--8-8--|
C--6-6-6--4-4-4--3-3-3--8-8--|
PM   .      .      .
___________________________________________________________________

verse 1
D-------------------------------------------|
A-------------------------------------------|
F-------------------------------------------|
C--8--8-8-8--8--8-8-8--8--8-8-8--8----------|
G--6--6-6-6--6--6-6-6--6--6-6-6--6-4-4-4-4--|
C-----x-x-x-----x-x-x-----x-x-x----4-4-4-4--|
PM    . . .     . . .     . . .    . . . .


D------------------------------------------|
A------------------------------------------|
F------------------------------------------|
C--8--8-8-8--8--8-8-8--8--8-8-8--8---------|
G--6--6-6-6--6--6-6-6--6--6-6-6--6--9-8-4--|
C-----x-x-x-----x-x-x-----x-x-x------------|
PM    . . .     . . .     . . .

D-------------------------------------------|
A-------------------------------------------|
F-------------------------------------------|
C--8--8-8-8--8--8-8-8--8--8-8-8--8----------|
G--6--6-6-6--6--6-6-6--6--6-6-6--6-4-4-4-4--|
C-----x-x-x-----x-x-x-----x-x-x----4-4-4-4--|
PM    . . .     . . .     . . .    . . . .

Bridge
D----------------------------|
A----------------------------|
F----------------------------|
C--6---6--4---4--3---3--8-8--|
G--6-6-6--4-4-4--3-3-3--8-8--|
C--6-6-6--4-4-4--3-3-3--8-8--|
PM   .      .      .
___________________________________________________________________

D-------------------------------------|
A-------------------------------------|
F-------------------------------------|
C-----------------------4--4-4-4-/-8--|
G--2--2-2-2-/-6--6-6-6----------------|
C-------------------------------------|
PM    . . .      . . .     . . .
___________________________________________________________________
Pauze with drums
___________________________________________________________________

Verse 2
D-----------------------------------------------------------------------------------|
A-----------------------------------------------------------------------------------|
F-----------------------------------------------------------------------------------|
C--8--8-8-8--8--8-8-8--8--8-8-8--8--8-8--8-\-4--4-4-4--4--4-4--4-/-----------/-6-6--|
G--6--6-6-6--6--6-6-6--6--6-6-6--6--6-6--6-\-2--2-2-2--2--2-2--2-/-4--4-4--4-/-4-4--|
C-----x-x-x-----x-x-x-----x-x-x-----x-x---------x-x-x-----x-x----/-4--4-4--4--------|
PM    . . .     . . .     . . .     . .         . . .     . .         . .

D-------------------------------------------------------------------------|
A-------------------------------------------------------------------------|
F-------------------------------------------------------------------------|
C--8--8-8-8--8--8-8-8--8--------------------------------------------------|
G--6--6-6-6--6--6-6-6--6-/-7-7-8-8--7-8-/-11-11-11--11-11-/-13-13-13--13--|
C-----x-x-x-----x-x-x-----------------------------------------------------|
PM    . . .     . . .        .   .           ..                ..
___________________________________________________________________

Verse 2
D-----------------------------------------------------------------------------------|
A-----------------------------------------------------------------------------------|
F-----------------------------------------------------------------------------------|
C--8--8-8-8--8--8-8-8--8--8-8-8--8--8-8--8-\-4--4-4-4--4--4-4--4-/-----------/-6-6--|
G--6--6-6-6--6--6-6-6--6--6-6-6--6--6-6--6-\-2--2-2-2--2--2-2--2-/-4--4-4--4-/-4-4--|
C-----x-x-x-----x-x-x-----x-x-x-----x-x---------x-x-x-----x-x----/-4--4-4--4--------|
PM    . . .     . . .     . . .     . .         . . .     . .         . .

D-------------------------------------------------------------------------|
A-------------------------------------------------------------------------|
F-------------------------------------------------------------------------|
C--8--8-8-8--8--8-8-8--8--------------------------------------------------|
G--6--6-6-6--6--6-6-6--6-/-7-7-8-8--7-8-/-11-11-11--11-11-/-13-13-13--13--|
C-----x-x-x-----x-x-x-----------------------------------------------------|
PM    . . .     . . .        .   .           ..                ..
___________________________________________________________________

chorus
D------------------------------------------------------------------------|
A------------------------------------------------------------------------|
F------------------------------------------------------------------------|
C--8-8-8--8---------8--6-6-6--6---------6----6-\-1----3-3-3-/-7-7-7-/-8--|
G--6-6-6--6--8-8-8--8--4-4-4--4--6-6-6--6----6-\-1----3-3-3-/-7-7-7-/-8--|
C--x-x-x-----8-8-8--8--x-x-x-----6-6-6--6----6-\-1----3-3-3-/-7-7-7-/-8--|
PM . . .     . . .     . . .     . . .                . . .   . . .

chorus end 1
D--------------------------------------------------------------|
A--------------------------------------------------------------|
F--------------------------------------------------------------|
C--8-8-8--8---------8--6-6-6--6---------6----6-\-1--3-/-7-/-8--|
G--6-6-6--6--8-8-8--8--4-4-4--4--6-6-6--6----6-\-1--1-/-5-/-6--|
C--x-x-x-----8-8-8--8--x-x-x-----6-6-6--6----6-\-1-------------|
PM . . .     . . .     . . .     . . .

___________________________________________________________________

Verse 2
D-----------------------------------------------------------------------------------|
A-----------------------------------------------------------------------------------|
F-----------------------------------------------------------------------------------|
C--8--8-8-8--8--8-8-8--8--8-8-8--8--8-8--8-\-4--4-4-4--4--4-4--4-/-----------/-6-6--|
G--6--6-6-6--6--6-6-6--6--6-6-6--6--6-6--6-\-2--2-2-2--2--2-2--2-/-4--4-4--4-/-4-4--|
C-----x-x-x-----x-x-x-----x-x-x-----x-x---------x-x-x-----x-x----/-4--4-4--4--------|
PM    . . .     . . .     . . .     . .         . . .     . .         . .

D-------------------------------------------------------------------------|
A-------------------------------------------------------------------------|
F-------------------------------------------------------------------------|
C--8--8-8-8--8--8-8-8--8--------------------------------------------------|
G--6--6-6-6--6--6-6-6--6-/-7-7-8-8--7-8-/-11-11-11--11-11-/-13-13-13--13--|
C-----x-x-x-----x-x-x-----------------------------------------------------|
PM    . . .     . . .        .   .           ..                ..
___________________________________________________________________

Verse 2
D-----------------------------------------------------------------------------------|
A-----------------------------------------------------------------------------------|
F-----------------------------------------------------------------------------------|
C--8--8-8-8--8--8-8-8--8--8-8-8--8--8-8--8-\-4--4-4-4--4--4-4--4-/-----------/-6-6--|
G--6--6-6-6--6--6-6-6--6--6-6-6--6--6-6--6-\-2--2-2-2--2--2-2--2-/-4--4-4--4-/-4-4--|
C-----x-x-x-----x-x-x-----x-x-x-----x-x---------x-x-x-----x-x----/-4--4-4--4--------|
PM    . . .     . . .     . . .     . .         . . .     . .         . .

D-------------------------------------------------------------------------|
A-------------------------------------------------------------------------|
F-------------------------------------------------------------------------|
C--8--8-8-8--8--8-8-8--8--------------------------------------------------|
G--6--6-6-6--6--6-6-6--6-/-7-7-8-8--7-8-/-11-11-11--11-11-/-13-13-13--13--|
C-----x-x-x-----x-x-x-----------------------------------------------------|
PM    . . .     . . .        .   .           ..                ..
___________________________________________________________________

chorus
D------------------------------------------------------------------------|
A------------------------------------------------------------------------|
F------------------------------------------------------------------------|
C--8-8-8--8---------8--6-6-6--6---------6----6-\-1----3-3-3-/-7-7-7-/-8--|
G--6-6-6--6--8-8-8--8--4-4-4--4--6-6-6--6----6-\-1----3-3-3-/-7-7-7-/-8--|
C--x-x-x-----8-8-8--8--x-x-x-----6-6-6--6----6-\-1----3-3-3-/-7-7-7-/-8--|
PM . . .     . . .     . . .     . . .                . . .   . . .

chorus end 2
D-----------------------------------------------------------------------|
A-----------------------------------------------------------------------|
F-----------------------------------------------------------------------|
C--8-8-8--8---------8--6-6-6--6---------6----6-\-1----3-/-7-/-8----\-1--|
G--6-6-6--6--8-8-8--8--4-4-4--4--6-6-6--6----6-\-1----3-/-7-/-8----\-1--|
C--x-x-x-----8-8-8--8--x-x-x-----6-6-6--6----6-\-1----3-/-7-/-8----\-1--|
PM . . .     . . .     . . .     . . .
___________________________________________________________________

Pause with choir singing
___________________________________________________________________

verse 1
D-------------------------------------------|
A-------------------------------------------|
F-------------------------------------------|
C--8--8-8-8--8--8-8-8--8--8-8-8--8----------|
G--6--6-6-6--6--6-6-6--6--6-6-6--6-4-4-4-4--|
C-----x-x-x-----x-x-x-----x-x-x----4-4-4-4--|
PM    . . .     . . .     . . .    . . . .


D------------------------------------------|
A------------------------------------------|
F------------------------------------------|
C--8--8-8-8--8--8-8-8--8--8-8-8--8---------|
G--6--6-6-6--6--6-6-6--6--6-6-6--6--9-8-4--|
C-----x-x-x-----x-x-x-----x-x-x------------|
PM    . . .     . . .     . . .

D-------------------------------------------|
A-------------------------------------------|
F-------------------------------------------|
C--8--8-8-8--8--8-8-8--8--8-8-8--8----------|
G--6--6-6-6--6--6-6-6--6--6-6-6--6-4-4-4-4--|
C-----x-x-x-----x-x-x-----x-x-x----4-4-4-4--|
PM    . . .     . . .     . . .    . . . .

Bridge
D----------------------------|
A----------------------------|
F----------------------------|
C--6---6--4---4--3---3--8-8--|
G--6-6-6--4-4-4--3-3-3--8-8--|
C--6-6-6--4-4-4--3-3-3--8-8--|
PM   .      .      .
___________________________________________________________________

verse 1
D-------------------------------------------|
A-------------------------------------------|
F-------------------------------------------|
C--8--8-8-8--8--8-8-8--8--8-8-8--8----------|
G--6--6-6-6--6--6-6-6--6--6-6-6--6-4-4-4-4--|
C-----x-x-x-----x-x-x-----x-x-x----4-4-4-4--|
PM    . . .     . . .     . . .    . . . .


D------------------------------------------|
A------------------------------------------|
F------------------------------------------|
C--8--8-8-8--8--8-8-8--8--8-8-8--8---------|
G--6--6-6-6--6--6-6-6--6--6-6-6--6--9-8-4--|
C-----x-x-x-----x-x-x-----x-x-x------------|
PM    . . .     . . .     . . .

D-------------------------------------------|
A-------------------------------------------|
F-------------------------------------------|
C--8--8-8-8--8--8-8-8--8--8-8-8--8----------|
G--6--6-6-6--6--6-6-6--6--6-6-6--6-4-4-4-4--|
C-----x-x-x-----x-x-x-----x-x-x----4-4-4-4--|
PM    . . .     . . .     . . .    . . . .

Bridge
D----------------------------|
A----------------------------|
F----------------------------|
C--6---6--4---4--3---3--8-8--|
G--6-6-6--4-4-4--3-3-3--8-8--|
C--6-6-6--4-4-4--3-3-3--8-8--|
PM   .      .      .
___________________________________________________________________

chorus
D------------------------------------------------------------------------|
A------------------------------------------------------------------------|
F------------------------------------------------------------------------|
C--8-8-8--8---------8--6-6-6--6---------6----6-\-1----3-3-3-/-7-7-7-/-8--|
G--6-6-6--6--8-8-8--8--4-4-4--4--6-6-6--6----6-\-1----3-3-3-/-7-7-7-/-8--|
C--x-x-x-----8-8-8--8--x-x-x-----6-6-6--6----6-\-1----3-3-3-/-7-7-7-/-8--|
PM . . .     . . .     . . .     . . .                . . .   . . .

chorus end 3
D--------------------------------------------|
A--------------------------------------------|
F--------------------------------------------|
C--8-8-8--8---------8--6-6-6--6---------6----|
G--6-6-6--6--8-8-8--8--4-4-4--4--6-6-6--6----|
C--x-x-x-----8-8-8--8--x-x-x-----6-6-6--6----|
PM . . .     . . .     . . .     . . .

D------------------------------------------\-- /
A--------------------------------------------- / \
F------------------------------------------  \ /x2
C--8--8-8-8--8--8-8-8--8--8-8-8--8--------- -- /
G--6--6-6-6--6--6-6-6--6--6-6-6--6--9-8-4----- /
C-----x-x-x-----x-x-x-----x-x-x--------------- /
___________________________________________________________________

outro
D---------------------------------------------------|
A---------------------------------------------------|
F---------------------------------------------------|
C--8--8-8-8--8--8-8-8--8--8-8-8--8---------4-3-/-8--|
G--6--6-6-6--6--6-6-6--6--6-6-6--6--9-8-4--2-1-/-6--|
C-----x-x-x-----x-x-x-----x-x-x---------------------|

D-----------------------------------------------------|
A-----------------------------------------------------|
F-----------------------------------------------------|
C--8-8--8-8----8-8--8-8----8-8--8-8--------/-8\\\\\\--|
G--6-6--6-6----6-6--6-6----6-6--6-6--9-8-4-/-6\\\\\\--|
C-----------------------------------------------------|
PM. .   . .    . .  . .    . .  . .

THE END^^
Tap to rate this tab
 
# A B C D E F G H I J K L M N O P Q R S T U V W X Y Z