Song name
# A B C D E F G H I J K L M N O P Q R S T U V W X Y Z

Within Temptation - Memories tab

Within Temptation "Memories" Guitar Tab
Tabbed By Thecoverguitarist from youtube

Tuning Drop-A-E-A-D-F#-B

starts at 2:58min.x
B------------------------------------------------------|
Gb-----------------------------------------------------|
D------------------------------------------------------|
A--1-----9-----4---8--9-----1------9-----8------11--9--|
E--1-----9-----4---8--9-----1------9-----8------11--9--|
A--1-----9-----4---8--9-----1------9-----8------11--9--|

B------------------------------------------|
Gb-----------------------------------------|
D------------------------------------------|
A--1-----9-----1-----9-----6-----1-----11--|
E--1-----9-----1-----9-----6-----1-----11--|
A--1-----9-----1-----9-----6-----1-----11--|

THE END
Tap to rate this tab
 
# A B C D E F G H I J K L M N O P Q R S T U V W X Y Z