Song name
# A B C D E F G H I J K L M N O P Q R S T U V W X Y Z

Within Temptation - Jane Doe tab

Jane Doe by Within Temptation
From the single Mother Earth
tabbed by: IXAYAXI

This is my first tab, it is a pretty good song if you don't know it you have to listen 
it, and it's very easy so i'm sure it's perferct.

Intro (acoustic)

|--------------------------------|
|--------------------------------|
|--------------------------------|
|-----2---3-2--------2---3-2-----| x8, at the 4th time start the electric
|---2---2-----2----2---2-----2---|
|0--------------0--------------0-|

Intro (electric)

|--------------------------------|--------------------------------|
|--------------------------------|--------------------------------|
|--------------------------------|--------------------------------|
|--------------------------------|--------------------------------|
|2~~-----------------------------|~-------------------------------|
|0~~-----------------------------|~-------------------------------|


|--------------------------------|--------------------------------|
|--------------------------------|--------------------------------|
|--------------------------------|--------------------------------|
|--------------------------------|--------------------------------|
|4~--------------5~--------------|7~------------------------------|
|2~--------------3~--------------|5~------------------------------|

Chorus (electric)

|--------------------------------|--------------------------------|
|--------------------------------|--------------------------------|
|--------------------------------|--------------------------------|
|--------------------------------|--------------------------------|
|5~--------------2~--------------|5~--------------7~--------------|
|3~--------------0~--------------|3~--------------5~--------------|


|--------------------------------|--------------------------------|
|--------------------------------|--------------------------------|
|--------------------------------|--------------------------------|
|--------------------------------|--------------------------------|
|5~--------------2~--------------|4~------------------4-44-4-44-4-|
|3~--------------0~--------------|2~------------------2-22-2-22-2-|
                                                        **   ** *
|--------------------------------|--------------------------------|
|--------------------------------|--------------------------------|
|--------------------------------|--------------------------------|
|--------------------------------|--------------------------------|
|5~--------------2~--------------|7~------------------4-44-4-44-4-|
|3~--------------0~--------------|5~------------------2-22-2-22-2-|
                                                        **   ** *
|--------------------------------|
|--------------------------------|
|--------------------------------|
|--------------------------------|
|5~--------------2~--------------|
|3--~------------0~--------------|

Repeat intro acoustic x2

Verse

        Part 1 without guitar

        Part 2 (acoustic)

        |------------------------------2~|
        |----------------------------3---|
        |-----0~---------0~--------2-----|
        |---2----------2---------2-------| x2
        |-----------3---------0----------|
        |0-------------------------------|

        Part 3 (electric)
        |--------------------------------|--------------------------------|
        |--------------------------------|--------------------------------|
        |--------------------------------|--------------------------------|
        |--------------------------------|--------------------------------|x2
        |2-2-2-2-2-2-2-2-7-7-7-7-7-7-7-7-|5-5-5-5-5-5-5-5-5-5-5-5-4-4-4-4-|
        |0-0-0-0-0-0-0-0-5-5-5-5-5-5-5-5-|3-3-3-3-3-3-3-3-3-3-3-3-2-2-2-2-|
         * * * * * * * * * * * * * * * *  * * * * * * * * * * * * * * * *
        |--------------------------------|----------------|
        |--------------------------------|----------------|
        |--------------------------------|----------------|
        |--------------------------------|----------------|
        |---------------------------2~---|4-4-4-5-5-5-7---|
        |0-2-2-0-2--0--0-2-2-0-2--0-0~---|2-2-2-3-3-3-5---|
                                            * *   * *
Repeat chorus

Interlude (acoustic)

|---------------------------------|
|---------------------------------|
|---------------------------------|
|-----2---3-2--------2---3-2------| x4
|---2---2-----2----2---2----22----|
|0--------------0-------------1p0-|

Repeat verse

Repeat chorus x2

Outro
|----------------|
|----------------|
|----------------|
|----2---3-2-----|
|--2---2-----2---|
|0-------------0-|

Enjoy!
Tap to rate this tab
# A B C D E F G H I J K L M N O P Q R S T U V W X Y Z