Song name
# A B C D E F G H I J K L M N O P Q R S T U V W X Y Z

Within Temptation - Shot In The Dark tab

original tuning is Drop C, but this tab using Half step down(D# A# F# C# G# D#)

eb|----------------------------------------------------------------------------|
Bb|-----------------------------------------15+b-15br15-13-15-15b-12-----------|
Gb|---------14-16br16-16b-16b-14~-14-16br14--------------------------12~-12-12-|
Db|14h15h17--------------------------------------------------------------------|
Ab|----------------------------------------------------------------------------|
Eb|----------------------------------------------------------------------------|

eb|------------------------------------------10-10/12-12\8-8-8\7-7-5-0--15-0-15|
Bb|---------------------10----10-12-13-12-13-----------------------------------|
Gb|-12/14\10\9~-9h10h12----13--------------------------------------------------|
Db|----------------------------------------------------------------------------|
Ab|----------------------------------------------------------------------------|
Eb|----------------------------------------------------------------------------|

eb|-0-13-0-12-0-10-0-8-0-7h8p7---7------7h8-15p13p12----12---------------------|
Bb|----------------------------9---9h10--------------15----13h15-15br12----12--|
Gb|---------------------------------------------------------------------14-----|
Db|----------------------------------------------------------------------------|
Ab|----------------------------------------------------------------------------|
Eb|----------------------------------------------------------------------------|

eb|------12-13-15-17-19b-19~---------------------------------------------------|
Bb|13-15-----------------------------------------------------------------------|
Gb|----------------------------------------------------------------------------|
Db|----------------------------------------------------------------------------|
Ab|----------------------------------------------------------------------------|
Eb|----------------------------------------------------------------------------|


legend
| /   slide up
| \   slide down
| h   hammer-on
| p   pull-off
| ~   vibrato
| +   harmonic
| x   Mute note
| b   Bend
| pb  Pre-bend
| br  Bend release
| pbr Pre-bend release
| brb Bend release bend

Created by Robin A. user from youtube, transcripted from rondimw 
Tap to rate this tab
 
# A B C D E F G H I J K L M N O P Q R S T U V W X Y Z