Song name
# A B C D E F G H I J K L M N O P Q R S T U V W X Y Z

Within Temptation - Skyfall tab

-------------------------------------------------------------------------------
                           SKYFALL - Within Temptation
-------------------------------------------------------------------------------
Tabbed by: Christoffer Hallqvist
Tuning: Standard



e|-----------------|-----------------|---------------|-----------------|
B|-----------------|-----------------|---------------|-----------------|
G|-4-----4-----4---|-5-----5-----5---|-6-----6---6---|-5-----5-----5---|
D|-2-2-2-2-2-2-2-2-|-2-2-2-2-2-2-2-2-|-2-2-2-2-2-2-2-|-2-2-2-2-2-2-2-2-|
A|-----------------|-----------------|---------------|-----------------|
E|-----------------|-----------------|---------------|-----------------|



e|-----------------|-----------------|-----------------|-----------------|
B|-----------------|-----------------|-----------------|-----------------|
G|-------2---------|-------2-4-2-----|-------2---------|-------2-4-2-----|
D|-2-4-5---5-4-2-4-|-2-4-5-------5-4-|-2-4-5---5-4-2-4-|-2-4-5-------5-4-|
A|-----------------|-----------------|-----------------|-----------------|
E|-----------------|-----------------|-----------------|-----------------|
 
e|-----------------|-----------------|-----------------|-----------------|
B|-----------------|-----------------|-----------------|-----------------|
G|-5-4-2---5-4-2---|-5-4-2-------2-4-|-4-2-----4-2-----|-----------------|
D|-------5-------5-|-------5-4-5-----|-----5-4-----5-4-|-------2---------|
A|-----------------|-----------------|-----------------|-2-4-5---5-4-2-4-|
E|-----------------|-----------------|-----------------|-----------------|



e|-----------------|-----------------|-----------------|-----------------|
B|-----------------|-----------------|-----------------|-----------------|
G|-4-4-4-4-4-4-4-4-|-----------------|-----------------|-----------------|
D|-2-2-2-2-2-2-2-2-|-5-5-5-5-5-5-5-5-|-2-2-2-2-2-2-2-2-|-2-2-2-2-2-2-2-2-|
A|-----------------|-3-3-3-3-3-3-3-3-|-0-0-0-0-0-0-0-0-|-0-0-0-0-0-0-0-0-|
E|-----------------|-----------------|-----------------|-----------------|
   This is the      end                                  Hold your breath and
   Count            to ten.                              Feel the earth
   move a-          -gain                                Hear my heart

e|-------------------|-----------------|-----------------|-----------------|
B|-------------------|-----------------|-----------------|-----------------|
G|-------------------|-----------------|-----------------|-----------------|
D|-------------------|-----------------|-4-4-4-4-4-4-4-4-|-4-4-4-4-4-4-4-4-|
A|-4-4-4-4-4-4-4-4-4-|-4-4-4-4-4-4-4-4-|-2-2-2-2-2-2-2-2-|-2-2-2-2-2-2-2-2-|
E|-2-2-2-2-2-2-2-2-2-|-2-2-2-2-2-2-2-2-|-----------------|-----------------|
   burst               a-                -gain


e|-----------------|-----------------|-----------------|-----------------|
B|-----------------|-----------------|-----------------|-----------------|
G|-----4-------4---|-----------------|-----------------|-----------------|
D|-2-2-2-2-2-2-2-2-|-----5-------5---|-----2-------2---|-----2-------2---|
A|-----------------|-3-3-3-3-3-3-3-3-|-0-0-0-0-0-0-0-0-|-0-0-0-0-0-0-0-0-|
E|-----------------|-----------------|-----------------|-----------------|
   For this is the  end.                                 I've drowned and dreamt this
   mo-              -ment.                               So overdue I
   owe              them.                                Swept away I'm

e|-----------|-----------|-----------|-----------|
B|-----------|-----------|-----------|-----------|
G|-----------|-----------|-----------|-----------|
D|-----------|-----------|-----4-3-4-|-----4 4\n-|
A|-----4-3-4-|-----4-3-4-|-2-2-2-2-2-|-2-2-2 2\n-|
E|-2-2-2-2-2-|-----2-2-2-|-----------|-----------|
   sto-                    -len


Let the sky fall
When it crumbles
We will stand tall
Face it all together

Let the sky fall
When it crumbles
We will stand tall
Face it all together


At skyfall
That skyfall


Skyfall is where we start
A thousand miles and poles apart
Where worlds collide and days are dark
You may have my number, you can take my name
But you'll never have my heart


 + 

e|-----------------|-----------------------|-----------------|----------------------|
B|-----------------|-----------------------|-----------------|----------------------|
G|-----------------|-----------------------|-----------------|----------------------|
D|-2-4-4-4-4-------|-2-2-2-2-5-5-5-5-4-4-4-|-2-4-4-4-4-------|-2-2-2-2-5-5-5-5-4-4-4|
A|-----------------|-----------------------|-----------------|----------------------|
E|-----------------|-----------------------|-----------------|----------------------|



e|-----------------|-------------------------|-----------------|----------------------|
B|-----------------|-------------------------|-----------------|----------------------|
G|-----------------|-------------------------|-2---------------|-3--4-----------------|
D|-2---------------|-4--5--------------------|-0---------------|-1--2-----------------|
A|-0---------------|-2--3--------------------|-----------------|----------------------|
E|-----------------|-------------------------|-----------------|----------------------|
Where you go I go   What you see I see, I know I'd never be me   Without the security

e|--------------------|---------------------------|
B|--------------------|---------------------------|
G|-2------------------|---------------------------|
D|-0-5----------------|-4--2------------------2---|
A|---3----------------|-2--0------------------0-2-|
E|--------------------|-------------------------3-|
Of your loving arms     Keeping me from harm


e|-------------------|-----------------|-----------------|-----------------|
B|-------------------|-----------------|-----------------|-----------------|
G|-------------------|-----------------|-----------------|-----------------|
D|-------------------|-----------------|-4-4-4-4-4-4-4-4-|-4-4-4-4-4-4-4-4-|
A|-4-4-4-4-4-4-4-4-4-|-4-4-4-4-4-4-4-4-|-2-2-2-2-2-2-2-2-|-2-2-2-2-2-2-2-2-|
E|-2-2-2-2-2-2-2-2-2-|-2-2-2-2-2-2-2-2-|-----------------|-----------------|
Put your hand in my hand     And we'll   sta-               -and



We will stand tall
When it cr-

Outro
e|---------|--------|--------|---------|----------|--------|---------|--------|
B|---------|--------|--------|---------|----------|--------|---------|--------|
G|---------|--------|--------|---------|----------|--------|---------|--------|
D|-2-------|--------|--------|---------|----------|--------|---------|--------|
A|-0-------|------5-|-4------|---------|-4--------|--------|-2-------|--------|
E|---------|------3-|-2------|---------|-2--------|--------|-0-------|--------|
  -umble-      -e-              -e-                 -e-       -els At skyfall

Legend
------
\n - Tremolo dive
Tap to rate this tab
# A B C D E F G H I J K L M N O P Q R S T U V W X Y Z