Song name
# A B C D E F G H I J K L M N O P Q R S T U V W X Y Z

Within Temptation - And We Run tab

Within Temptation-And We Run (Guitar Tab) Drop-Bb-F-Bb-Eb-G-C-F tuning

Intro
F------------------------------------------------------------------\
C------------------------------------------------------------------ \
G------------------------------------------------------------------  \
Eb-----------------------------------------------------------------   \
Bb-----------------------------------------------------------------    \
F------------------------------------------------------------------     \
Bb--7-7-7-7-7-7-7-7-7-7-7-7-7-7-7-3-3-3-3-3-3-3-3-3-3-3-3-3-3-3-3--      \
PM  . . . . . . . . . . . . . . . . . . . . . . . . . . . . . . .
                                                                          X2

F------------------------------------------------------------------      /
C------------------------------------------------------------------     /
G------------------------------------------------------------------    /
Eb-----------------------------------------------------------------   /
Bb-----------------------------------------------------------------  /
F---3-3-3-3-3-3-3-3-3-3-3-3-3-3-3---------------------------------- /
Bb--------------------------------2-2-2-2-2-2-2-2-2-2-2-2-2-2-2-2--/
PM  . . . . . . . . . . . . . . . . . . . . . . . . . . . . . . .  

F----------------------------------------------------------------------|
C----------------------------------------------------------------------|
G----------------------------------------------------------------------|
Eb---------------------------------------------------------------------|
Bb---------------------------------------------------------------------|
F----------------------------------------------------------------------|
Bb--3-3-3-3-3-3-3-3-3-3-3-3-/-5-5-5-/-7-7-7-7-7-7-7-7-7-7-7-7-\-5-5-5--|

F--------------------------------------------|
C--------------------------------------------|
G--------------------------------------------|
Eb-------------------------------------------|
Bb--------------------------------------2~~~~|
F---------------------------------------2~~~~|
Bb--3-3-3-3-3-3-3-0-0-0-0-2-2-2-2-2-2-2-2~~~~|

Pauze.

Chorus (Starts At. 1:28 Min)
F------------------------------------------------------------------------------|
C------------------------------------------------------------------------------|
G------------------------------------------------------------------------------|
Eb-----------------------------------------------------------------------------|
Bb--------------7-7-7-7-7-7-7-7-7-7-7-7-7-7-7-3-3-3-3-3-3-3-3-3-3-3-3-3-3-3-3--|
F---------------7-7-7-7-7-7-7-7-7-7-7-7-7-7-7-3-3-3-3-3-3-3-3-3-3-3-3-3-3-3-3--|
Bb--7-/-12-\-3--7-7-7-7-7-7-7-7-7-7-7-7-7-7-7-3-3-3-3-3-3-3-3-3-3-3-3-3-3-3-3--|

F-------------------------------------------------------------------|
C-------------------------------------------------------------------|
G-------------------------------------------------------------------|
Eb------------------------------------------------------------------|
Bb--5-5-5-5-5-5-5-5-5-5-5-5-5-5-5-2-2-2-2-2-2-2-2-2-2-2-2-----------|
F---3-3-3-3-3-3-3-3-3-3-3-3-3-3-3-2-2-2-2-2-2-2-2-2-2-2-2--5-3-2----|
Bb--------------------------------2-2-2-2-2-2-2-2-2-2-2-2--------2--|

F------------------------------------------------------------------------------|
C------------------------------------------------------------------------------|
G------------------------------------------------------------------------------|
Eb-----------------------------------------------------------------------------|
Bb--------------7-7-7-7-7-7-7-7-7-7-7-7-7-7-7-3-3-3-3-3-3-3-3-3-3-3-3-3-3-3-3--|
F---------------7-7-7-7-7-7-7-7-7-7-7-7-7-7-7-3-3-3-3-3-3-3-3-3-3-3-3-3-3-3-3--|
Bb--7-/-12-\-3--7-7-7-7-7-7-7-7-7-7-7-7-7-7-7-3-3-3-3-3-3-3-3-3-3-3-3-3-3-3-3--|

F------------------------------------------------------------------|
C------------------------------------------------------------------|
G------------------------------------------------------------------|
Eb-----------------------------------------------------------------|
Bb--5-5-5-5-5-5-5-5-5-5-5-5-5-5-5-2-2-2-2-2-2-2-2-2-2-2-2-2-2-2-2--|
F---3-3-3-3-3-3-3-3-3-3-3-3-3-3-3-2-2-2-2-2-2-2-2-2-2-2-2-2-2-2-2--|
Bb--------------------------------2-2-2-2-2-2-2-2-2-2-2-2-2-2-2-2--|

Bridge (Rap Section)
F------------------------------------------------------------------\
C------------------------------------------------------------------ \
G------------------------------------------------------------------  \
Eb-----------------------------------------------------------------   \
Bb-----------------------------------------------------------------    \
F---7-7-7-7-7-7-7-7-7-7-7-7-7-7-7-3-3-3-3-3-3-3-3-3-3-3-3-3-3-3-3--     \
Bb--7-7-7-7-7-7-7-7-7-7-7-7-7-7-7-3-3-3-3-3-3-3-3-3-3-3-3-3-3-3-3--      \
PM  . . . . . . . . . . . . . . . . . . . . . . . . . . . . . . .
                                                                            X2

F------------------------------------------------------------------      /
C------------------------------------------------------------------     /
G------------------------------------------------------------------    /
Eb-----------------------------------------------------------------   /
Bb--5-5-5-5-5-5-5-5-5-5-5-5-5-5-5----------------------------------  /
F---3-3-3-3-3-3-3-3-3-3-3-3-3-3-3-2-2-2-2-2-2-2-2-2-2-2-2-2-2-2-2-- /
Bb--------------------------------2-2-2-2-2-2-2-2-2-2-2-2-2-2-2-2--/
PM  . . . . . . . . . . . . . . . . . . . . . . . . . . . . . . .

Rhythm Guitarist Part.
F------------------------------------------------------------------\
C------------------------------------------------------------------ \
G------------------------------------------------------------------  \
Eb-----------------------------------------------------------------   \
Bb--------7---------------7-------------3-----------------3--------    \
F---7-7-7-7-7-7-7-7-7-7-7-7-7-7-7-3-3-3-3-3-3-3-3-3-3-3-3-3-3-3-3--     \
Bb--7-7-7-7-7-7-7-7-7-7-7-7-7-7-7-3-3-3-3-3-3-3-3-3-3-3-3-3-3-3-3--      \
PM  . . .   . . . . . . .   . . . . . .   . . . . . . . .   . . .
                                                                            X2

F------------------------------------------------------------------      /
C------------------------------------------------------------------     /
G------------------------------------------------------------------    /
Eb--------5---------------5----------------------------------------   /
Bb--5-5-5-5-5-5-5-5-5-5-5-5-5-5-5-------2-----------------2-2-2-2--  /
F---3-3-3-3-3-3-3-3-3-3-3-3-3-3-3-2-2-2-2-2-2-2-2-2-2-2-2-2-2-2-2-- /
Bb--------------------------------2-2-2-2-2-2-2-2-2-2-2-2-2-2-2-2--/
PM  . . .   . . . . . . .   . . . . . .   . . . . . . . .

Lead Guitarist Part.
F-----------------------------------------|
C-----------------------------------------|
G-----------------------------------------|
Eb--10-10-10-7-7-7-10-10-9-9-9-9-9-9-9-9--|
Bb----------------------------------------|
F-----------------------------------------|
Bb----------------------------------------|
PM     .. ..   . .    ..   . .   . .   . 

F------------------------------------------------------------------------|
C------------------------------------------------------------------------|
G------------------------------------------------------------------------|
Eb--10-10-10-7-7-7-10-10-9-9-9-9-9-9-12-12-14-14-14-14-14-14-15-15-14-14-|
Bb-----------------------------------------------------------------------|
F------------------------------------------------------------------------|
Bb-----------------------------------------------------------------------|
PM     .. ..   . .    ..   . .   . .    ..    .. ..    .. ..    ..    .. |

--------------------------------|
--------------------------------|
--------------------------------|
-12-10-9-9-9-9-9-9-10-10-/-12~\~|
--------------------------------|
--------------------------------|
--------------------------------|
         . .   . .    ..

Pauze.

Outro Starts At. 2:58 Min
F------------------------------------------------------------------\
C------------------------------------------------------------------ \
G------------------------------------------------------------------  \
Eb-----------------------------------------------------------------   \
Bb--7-7-7-7-7-7-7-7-7-7-7-7-7-7-7-3-3-3-3-3-3-3-3-3-3-3-3-3-3-3-3--    \
F---7-7-7-7-7-7-7-7-7-7-7-7-7-7-7-3-3-3-3-3-3-3-3-3-3-3-3-3-3-3-3--     \
Bb--7-7-7-7-7-7-7-7-7-7-7-7-7-7-7-3-3-3-3-3-3-3-3-3-3-3-3-3-3-3-3--      \

                                                                           X2

F-------------------------------------------------------------------      /
C-------------------------------------------------------------------     /
G-------------------------------------------------------------------    /
Eb------------------------------------------------------------------   /
Bb--5-5-5-5-5-5-5-5-5-5-5-5-5-5-5-2-2-2-2-2-2-2-2-2-2-2-2-----------  /
F---3-3-3-3-3-3-3-3-3-3-3-3-3-3-3-2-2-2-2-2-2-2-2-2-2-2-2--5-3-2---- /
Bb--------------------------------2-2-2-2-2-2-2-2-2-2-2-2--------2--/

F------------------------------------------------------------------|
C------------------------------------------------------------------|
G------------------------------------------------------------------|
Eb-----------------------------------------------------------------|
Bb--7-7-7-7-7-7-7-7-7-7-7-7-7-7-7-3-3-3-3-3-3-3-3-3-3-3-3-3-3-3-3--|
F---7-7-7-7-7-7-7-7-7-7-7-7-7-7-7-3-3-3-3-3-3-3-3-3-3-3-3-3-3-3-3--|
Bb--7-7-7-7-7-7-7-7-7-7-7-7-7-7-7-3-3-3-3-3-3-3-3-3-3-3-3-3-3-3-3--|

F-------------------------------------------------------------------|
C-------------------------------------------------------------------|
G-------------------------------------------------------------------|
Eb------------------------------------------------------------------|
Bb--5-5-5-5-5-5-5-5-5-5-5-5-5-5-5-2-2-2-2-2-2-2-2-2-2-2-2------2----|
F---3-3-3-3-3-3-3-3-3-3-3-3-3-3-3-2-2-2-2-2-2-2-2-2-2-2-2--5-3-0----|
Bb--------------------------------2-2-2-2-2-2-2-2-2-2-2-2-----------|
The End.
Tap to rate this tab
# A B C D E F G H I J K L M N O P Q R S T U V W X Y Z