Song name
# A B C D E F G H I J K L M N O P Q R S T U V W X Y Z

Within Temptation - Stand My Ground tab

-------------------------------------------------------------------------------
			     Stand My Ground - Within Temptation
-------------------------------------------------------------------------------
Tabbed by: Ev'Lee84
E-mail:

Tuning: Standard

Here is my first tab ! Hope you'll enjoy it ! :D

e|-INTRO---------------------------------------------------------------------|
B|---------------------------------------------------------------------------|
G|-5-55-55-8-5-6--5-55-55-8-5-8-7--5-55-55-8-5-6--5-55-55-8-5-6-4------------|
D|-5-55-55-8-5-4--5-55-55-8-5-8-7--5-55-55-8-5-4--5-55-55-8-5-4-2------------|
A|-3-33-33-6-3-4--3-33-33-6-3-6-5--3-33-33-6-3-4--3-33-33-6-3-4-2------------|
E|---------------------------------------------------------------------------|

e|---------------------------------------------------------------------------|
B|---------------------------------------------------------------------------| 
G|-5-55-55-8-5-6--5-55-55-8-5-8-7--5-55-55-8-5-6--5-55-55-8-5-6-4-5~---------|
D|-5-55-55-8-5-4--5-55-55-8-5-8-7--5-55-55-8-5-4--5-55-55-8-5-4-2-5~---------|
A|-3-33-33-6-3-4--3-33-33-6-3-6-5--3-33-33-6-3-4--3-33-33-6-3-4-2-3~---------|
E|---------------------------------------------------------------------------|

Then no guitar for the first part of the first verse

e|-Verse 1 part 2------------------------------------------------------------|
B|---------------------------------------------------------------------------|
G|-5-55-55-8-5-6--5-55-5-5-8-5---8~---7~-------------------------------------|
D|-5-55-55-8-5-4--5-55-5-5-8-51--6~---5~-------------------------------------|
A|-3-33-33-6-3-4--3-33-3-3-6-3-h36~---5~-------------------------------------|
E|---------------------------------------------------------------------------|

e|-Chorus (this part is to play twice)---------------------------------------|
B|---------------------------------------------------------------------------|
G|-----------------6-6-6-6-6-6-6-6-3-3-3-3-3-3-3-3---------------------------|
D|-3-3-3-3-3-3-3-3-6-6-6-6-6-6-6-6-3-3-3-3-3-3-3-3-6-6-6-6-5-5-5-3-3---------|
A|-3-3-3-3-3-3-3-3-4-4-4-4-4-4-4-4-1-1-1-1-1-1-1-1-6-6-6-6-5-5-5-3-3---------|
E|-1-1-1-1-1-1-1-1---------------------------------4-4-4-4-3-3-3-1-1---------|

e|-Verse 2 (part 1)----------------------------------------------------------|
B|---------------------------------------------------------------------------|
G|-55-5-55--55-5-55--88-8-88--55-5-55----------------------------------------|
D|-55-5-55--55-5-55--66-6-66--33-3-33----------------------------------------|
A|-33-3-33--33-3-33--66-6-66--33-3-33----------------------------------------|
E|---------------------------------------------------------------------------|

e|-Verse 2 (part 2)----------------------------------------------------------|
B|---------------------------------------------------------------------------|
G|---------------------------------------------------------------------------|
D|----5555---555-------5555---555--------------------------------------------|
A|-1h333331h33331h3-1h333331h33331h3----6666---6666666----3333---3333333-----|
E|-----------------------------------3h444443h44444444-0h111110h11111111-----|


e|---------------------------------------------------------------------------|
B|---------------------------------------------------------------------------|
G|-5-55-55-8-5---8~---7~-----------------------------------------------------|
D|-5-55-55-8-51--6~---5~-----------------------------------------------------|
A|-3-33-33-6-3-h36~---5~-----------------------------------------------------|
E|---------------------------------------------------------------------------|

Chorus three times until the end

e|---------------------------------------------------------------------------|
B|---------------------------------------------------------------------------|
G|---------------------------------------------------------------------------|
D|---------------------------------------------------------------------------|
A|---------------------------------------------------------------------------|
E|---------------------------------------------------------------------------|


************************************

| /   slide up
| \   slide down
| h   hammer-on
| p   pull-off
| ~   vibrato
| +   harmonic
| x   Mute note
| b   Bend
| pb  Pre-bend
| br  Bend release
| pbr Pre-bend release
| brb Bend release bend

************************************
Tap to rate this tab
# A B C D E F G H I J K L M N O P Q R S T U V W X Y Z