Guitaretab - guitar tabs
Song name
# A B C D E F G H I J K L M N O P Q R S T U V W X Y Z

Within Temptation - Deceiver Of Fools tab

  - palm mute

Tunning: Half Tone Down (Eb Ab Db Gb Bb eb)


        INTRO:(DISTORTION) (02:05)
P.M  * * * *        * * * *
  |----------------------------------|
  |----------------------------------|
  |----------------------------------|
  |--7-7-7-7--------7-7-7-7----------|
  |--5-5-5-5---3--55-5-5-5----5--7--|
  |------------1--3------------3--5--|


	POST INTRO:(DISTORTION) (02:22)
P.M ***********************  ************************
  |---------------------------------------------------------|
  |---------------------------------------------------------|
  |---------------------------------------------------------|
  |-777777777755533333335555-7777777777555------------------|
  |-555555555533311111113333-5555555555333333333335555------|
  |---------------------------------------111111113333------|

P.M ***********************
  |----------------------------------|
  |----------------------------------|
  |----------------------------------|
  |-777777777755533333335555---------|
  |-555555555533311111113333--5--7---|
  |---------------------------3--5---|


	   1st VERSE:(DISTORTION)(02:53)
P.M
  |----------------|
  |----------------|
  |----------------|
  |---------5------|
  |-----3---3------|
  |-----1----------|





	CHORUS:(DISTORTION) (03:11)
P.M   *   * *    * *   *
  |--------------------------------|
  |--------------------------------|
  |--------------------------------|  X2
  |-----5-3-5-7--7-7-3-5-3-5--7---|
  |-3-3-3-1-3-5--5-5-1-3-1-3--5---|
  |-1-1----------------------------|

	2nd VERSE:(DISTORTION) (03:28)
PM  ***************************************************************
  |-------------------------------------------------------------------|
  |-------------------------------------------------------------------|
  |-------------------------------------------------------------------|
  |-------------------------------------------------------------------|
  |-555555555---------------------------------------------------------|
  |----------666666666888888888555555555666666666333333333555555555---|


P.M
  |----------------|
  |----------------|
  |----------------|
  |---------5------|
  |-----3---3------|
  |-----1----------|

[ Tab from: http://www.guitaretab.com/w/within-temptation/76918.html ]
PM  ***************************************************************
  |-------------------------------------------------------------------|
  |-------------------------------------------------------------------|
  |-------------------------------------------------------------------|
  |-------------------------------------------------------------------|
  |-555555555---------------------------------------------------------|
  |----------666666666888888888555555555666666666333333333555555555---|


CHORUS:(DISTORTION) (04:00)
P.M   *   * *    * *   *
  |--------------------------------|
  |--------------------------------|
  |--------------------------------|  X2
  |-----5-3-5-7--7-7-3-5-3-5--7---|
  |-3-3-3-1-3-5--5-5-1-3-1-3--5---|
  |-1-1----------------------------|

INTERLUDE: (04:33)

PM                               * *      * *
  |-----------------------------------------------|
  |-----------------------------------------------|
  |-----------------------------------------------|
  |-----------7---7-----5---5----7-7-7----7-7-7---|
  |-5---5--3--5---5-----3---3----5-5-5----5-5-5---|
  |-3---3--1--------------------------------------|


PM
  |----------------------------------------------|
  |----------------------------------------------|
  |----------------------------------------------|
  |-----------7---7-----3---3------5---5---------|
  |-5---5--3--5---5-----1---1------3---3---------|
  |-3---3--1-------------------------------------|


CHORUS:(DISTORTION) (05:05)
P.M   *   * *    * *   *
  |--------------------------------|
  |--------------------------------|
  |--------------------------------|  X2
  |-----5-3-5-7--7-7-3-5-3-5--7---|
  |-3-3-3-1-3-5--5-5-1-3-1-3--5---|
  |-1-1----------------------------|


(DISTORTION) (06:18)
P.M  * * * *        * * * *
  |----------------------------------|
  |----------------------------------|
  |----------------------------------|
  |--7-7-7-7--------7-7-7-7----------|
  |--5-5-5-5---3--55-5-5-5----5--7--|
  |------------1--3------------3--5--|

P.M ***********************  ************************
  |---------------------------------------------------------|
  |---------------------------------------------------------|
  |---------------------------------------------------------|
  |-777777777755533333335555-7777777777555------------------|
  |-555555555533311111113333-5555555555333333333335555------|
  |---------------------------------------111111113333------|

P.M ***********************
  |----------------------------------|
  |----------------------------------|
  |----------------------------------|
  |-777777777755533333335555---------|
  |-555555555533311111113333--5--7---|
  |---------------------------3--5---|

CHORUS:(DISTORTION) (06:52)
P.M   *   * *    * *   *
  |--------------------------------|
  |--------------------------------|
  |--------------------------------|  X2
  |-----5-3-5-7--7-7-3-5-3-5--7---|
  |-3-3-3-1-3-5--5-5-1-3-1-3--5---|
  |-1-1----------------------------|
Related for Deceiver Of Fools tab