Guitaretab - guitar tabs
Song name
# A B C D E F G H I J K L M N O P Q R S T U V W X Y Z

Within The Ruins - Tractor Pull tab

"Tractor Pull"

BY: WITHIN THE RUINS

Transcribed by Joe Keller
jkguitar@comcast.net

THANKS AND ENJOY!

Tuning
G# D# G# C# F A#


you know the deal..

h= hammer on
p= pull off
/ \= slides
*= harmonic

ect....

 [    INTRO:    ]

    [Play this 2x]
|--------------------------------------------------|
|--------------------------------------------------|
|--------------------------------------------------|
|-----11--------------11---------------------------|
|--------12-9----9-12----12-9--------11/12---------|
|-0-0---------11--------------11-6/7-------0-0000--|

|-------------------------------------------------------------------------------------|
|-------------------------------------------------------------------------------------|
|-------------------------------------------------------------------------------------|
|-11--------------11------------------------------------------------------------------|
|----12-9----9-12----12-8-11---44----4-4/5-5\2-2/4----7/9---------6p3---3-6/7---------|
|---------11-----------------4----44---------------44-----4-44444-----4-------333-333-|


|--------------------------------------------------------------------------|
|--------------------------------------------------------------------------|
|--------------------------------------------------------------------------|
|--------------------------7---------7------------------------------11-----|
|-9----9----9----9----8-11---11-8-11---11-9----9----9----9----11-14----14--|
|---12---12---12---12-----------------------12---12---12---12--------------|

|----------------------------------------------------------------|
|----------------------------------------------------------------|
|----------------------------------------------------------------|
|----------------------------------------------------------------|
|-9999999999-4444444444-12-12-12-12-12-12-12-12-12-12-444444444--|
|----------------------------------------------------------------|

|-------------------------------------------------------------------------------------|
|-------------------------------------------------------------------------------------|
|-------------------------------------------------------------------------------------|
|--------------------------7---------7------------------------------11----------11----|
|-9----9----9----9----8-11---11-8-11---11-9----9----9----9----11-14----14-11-14----14-|
|---12---12---12---12-----------------------12---12---12---12-------------------------|

|---------------------------------------------------------------------|
|---------------------------------------------------------------------|
|---------------------------------------------------------------------|
|-------------------777777-666666---------------9999999-666666-777777-|
|-9999999999-444444---------------8888-99999999-----------------------|
|---------------------------------------------------------------------|

|-------------------------------------------------------------------------------------|
|-------------------------------------------------------------------------------------|
|-------------------------------------------------------------------------------------|
|--------------------------7---------7------------------------------11----------11----|
|-9----9----9----9----8-11---11-8-11---11-9----9----9----9----11-14----14-11-14----14-|
|---12---12---12---12-----------------------12---12---12---12-------------------------|

|-----------------------------------------------------------------------|
|-----------------------------------------------------------------------|
|-----------------------------------------------------------------------|
|-----------------------------------------------------------------------|
|-9999999999-4444444444-12-12-12-12-12-12-12-12-12-12-11-11-11-11-11-11-|
|-----------------------------------------------------------------------|

|-------------------------------------------9----------9-------------|
|-------------------------------------10h12---12p10h12---12p10h12----|
|--------------------------------------------------------------------|
|-------------------------7---------4--------------------------------|
|-9----9----9----9---8-11---11-8-11-4--------------------------------|
|---12---12---12--------------------4--------------------------------|

|---------------------9----------9-----------------------------------|
|---------------10h12---12p10h12---12p10h12--------------------------|
|--------------------------------------------------------------------|
|--------------------------------------------------------------------|
|-4-44-4-444-4-------------------------------4-44-4-444-4---44-4-----|
|-4-44-4-444-4-------------------------------4-44-4-444-4---44-4-----|

|---------------------------------------------------------------------|
|---------------------------------------------------------------------|
|---------------------------------------------------------------------|
|---------------------------------------------------------------------|
|-4-44-4-444-4---4-4---44-44-4-4444---4-4-4-44-4-4-4-44--4-44-4--444--|
|-4-44-4-444-4---4-4---44-44-4-4444---5-5-5-55-5-5-5-55--4-44-4--444--|

|-----------------------------------------------------------------------|
|-----------------------------------------------------------------------|
|-----------------------------------------------------------------------|
|---------------------------------7h11p7---7-11---9h11p9-7-6-4----------|
|-4-4-4-44-4-4-4-44--4-44-4--444---------9------8-----------------------|
|-5-5-5-55-5-5-5-55--4-44-4--444-------------------------------44444444-|

|-------------------------------------------------------------------------|
|-------------------------------------------------------------------------|
|-------------------------------------------------------------------------|
|-7h11p7---7-11---9h11p9-7-6-4-------/9-7-3-------------------------------|
|--------9------8---------------------------4-----4-444---4-5\4-----0-0-0-|
|------------------------------0-0-0----------3-4-4-444-2-------2-0-0-0-0-|

|-------------------------------------------------------------------------------|
|-------------------------------------------------------------------------------|
|-10-13-10-13-11-14-11-14-------------------------------------------------------|
|-------------------------7h11p7---7-11---9h11p9-7-6-4-------/9-7-3-------------|
|--------------------------------9------8---------------------------4-----4-444-|
|------------------------------------------------------0-000----------3-4-4-444-|

 -------------------------------------------------------------|
 ---------------------------------------------------14--------|
 ------------10h13p10h13-11h14p11h14-10h13p10----------11\----|
 ---------------------------------------------12p11-----------|
 ---4-5\4-----------------------------------------------------|
 -2-------2---------------------------------------------------|

 -------------------------------------------------------------------------|
 -------------------------------------------------------------------------|
 -------------------------------------------------------------------------|
 ----------7h11p7---7-11---9h11p9-7-6-4-----/9-7-3------------------------|
 -----------------9------8-------------------------4-------------4-5\4----|
 -44444444------------------------------4-4----------3-4-44-44-2-------2--|

 -----------------------------------------------------------------------------|
 ----------------------------------------14----------6--------------------14\-|
 -10h13p10h13-11h14p11h14-10h13p10----------13-------6----/10h13p10-----------|
 ----------------------------------12p11----11---4-4-3--------------12p11-----|
 -------------------------------------------9----4-4--------------------------|
 ------------------------------------------------4-4--------------------------|

 --------------------------------------------------------|
 ----------------------------------------------------14\-|
 -------------------------------------10h13p10-----------|
 ----------------------------------------------12p11-----|
 -4-4-444--444--44-44-4-444-444--4444--------------------|
 -4-4-444--444--44-44-4-444-444--4444--------------------|

 -------------------------------------------------------------------------------------------|
 ---------------------------------------------------------------------------------------14\-|
 ------------------------------------------------------------------------10h13p10-----------|
 ---------------------------------------------------------------------------------12p11-----|
 -444-444-44-44-4-444-444-4-4444-4444444--444-444-44-44-4-444-444-4-4444--------------------|
 -444-444-44-44-4-444-444-4-4444-4444444--444-444-44-44-4-444-444-4-4444--------------------|

   [guitar fill]
 |-------------------------------------|
 |---7-----------------7---------------|
 |-----6----7-4----------6---77-4-66---|
 |-4-----44-----3-6--4-----4---------7-|
 |-------------------------------------|
 |-------------------------------------|
[ Tab from: http://www.guitaretab.com/w/within-the-ruins/188956.html ]
  ----------------------------------------|
  ----------------------------------------|
  ----------------------------------------|
  ----------------------------------------|
  -444-444-44-44-4-444-444-4444-44444444--|
  -444-444-44-44-4-444-444-4444-44444444--|

  [Play this scale 2x]
|----------------------------------------------------------|
|----------------------------------------------------------|
|----------------------------------------------------------|
|-7h11p7---7-11---9h11p9-------11h12p11p9-11-12-3-6h7------|
|--------9------8--------12-11------------------------9-8--|
|----------------------------------------------------------|

  Play these 2 a few times..
|---------------------------------------------------------------------------------|
|---------------------------------------------------------------------------------|
|---------------------------------------------------------------------------------|
|---11--------------11----------------------11--------------11--------------------|
|------12-9----9-12----12-9--------11/12-------12-9----9-12----12-9--------11/12--|
|-4---------11--------------11-6/7--------0---------11--------------11-6/7--------|

 ---------------------------------------------------------------------------------|
 ---------------------------------------------------------------------------------|
 ---------------------------------------------------------------------------------|
 ---11--------------11-----------------------11--------------11-------------------|
 ------12-9----9-12----12-9--------11/12--------12-9----9-12----12-9--------11/12-|
 -9---------11--------------11-6/7--------11---------11--------------11-6/7-------|

|----------------------------------------------------------------------------------------|
|----------------------------------------------------------------------------------------|
|----------------------------------------------------------------------------------------|
|--------------------------------------6-3---3-6/7---------------------------------------|
|-----44---4-4/5-5\2-2/4----7-9--------------------------------44---4-4/5-5/2-2/4----7-9-|
|-444----4---------------44-----4-4444-----4-------333-333-444----4---------------44-----|

  --------------------------------------------------------------------|
  --------------------------------------------------------------------|
  --------------------------------------------------------------------|
  --------6-3---3-6/7----------------------------------7---------7----|
  ----------------------------9----9----9----9----8h11---11p8h11---11-|
  -4-4444-----4-------333-333---12---12---12---12---------------------|

  ---------------------------------------|
  ---------------------------------------|
  ---------------------------------------|
  ---------------------------11----------|
  -9----9----9----9----11h14----14p11----|
  ---12---12---12---12-------------------|


|-----------------------------------------------------------------------|
|-----------------------------------------------------------------------|
|-----------------------------------------------------------------------|
|---------------------4-------4-------------------------7---------7-----|
|-9---9---9---9---5h8---8p5h8---8--9---9---9---9---8h11---11p8h11---11--|
|---4---4---4---4--------------------4---4---4---4----------------------|

|-------------------------------------|
|-------------------------------------|
|-------------------------------------|
|-------------------------------------|
|-555555555555-22222222-888888888888--|
|-------------------------------------|

 |----------------------------------------------------------|
 |----------------------------------------------------------|
 |----------------------------------------------------------|
 |----------------------6h7-------------6h7-------------6h7-|
 |-4333-7-6-4h9-----4h9-----4h9-----4h9-----4h9-----4h9-----|
 |-4333-7-6-----4h7-------------4h7-------------4h7---------|

   -----------------------------------|
   -----------------------------------|
   -4---4-6-7-6-4---------------------|
   ---4-----------4-3h6-----3h6-------|
   ---------------------4h8-----4h8---|
   -----------------------------------|

   play this a few times into the solo
|-----------------------------------------------------------|
|-----------------------------------------------------------|
|--------------------------4---4-6-7-6-4--------------------|
|----------------------6h7---4-----------4-3h6-----3h6------|
|-4333-7-6-4h9-----4h9-------------------------4h8-----4h8--|
|-4333-7-6-----4h7------------------------------------------|


           Solo
|--------------------------------------------------------------------------------------------|
|--------------------------------------------------------------------------------------------|
|--------------------------------------------------------------------------------------------|
|-16-14h16p14\12--12h14p12\11---11h12p11-----------------------------------------15\11-------|
|----------------------------------------14-12-11-9---14-14-16-17-16-14-17-16-14-------12-11-|
|--------------------------------------------------------------------------------------------|

   GTR 2
|----------------------------------------------------------------------------------|
|----------------------------------------------------------------------------------|
|----------------------------------------------------------------------------------|
|---------------------------10-10-10-10-10-10-10-10-66666666-----------------------|
|-4333-7-6--999999999999999-8--8--8--8--8--8--8--8--44444444--4333-7-6-3-777-666-3-|
|-4333-7-6--999999999999999-----------------------------------4333-7-6-3-777-666-3-|


|-------------------------------------------|
|-------------------------------------------|
|-------------------------------------------|
|-------------------------------------------|
|-4333-7-6-3-777-666-3-4333-7-6-3-777-666-3-|
|-4333-7-6-3-777-666-3-4333-7-6-3-777-666-3-|

|-------------------------------------------|
|-------------------------------------------|
|----------10-10-10-10-10-10-10-10-66666666-|
|-99999999----------------------------------|
|-99999999-8--8--8--8--8--8--8--8--44444444-|
|-99999999----------------------------------|

|------------------------------------------------------------------|
|------------------------------------------------------------------|
|-/6h7p6-------------------------------------------6h7p6-----------|
|--------7-3h6p3-----------------------------6h7---------7-3h6p3---|
|----------------4-4h9-----4h9---4h9-----4h9---------------------4-|
|----------------------4h7-----------4h7---------------------------|

  -----------------------------------------------------------------|
  -----------------------------------------------------------------|
  -----------------------------------------------------------------|
  ---------------------------44---6----------------------------6h7-|
  -4h9-----4h9---4h9-----4h9-44---4---4h9-----4h9--4h9-----4h9-----|
  -----4h7-----------4h7-----44-----------4h7----------4h7---------|

  ------------------------------------------------|
  ------------------------------------------------|
  -6h7p6------------------------------------------|
  -------7-3h6p3-----------------------------44---|
  ---------------4-4h9-----4h9---4h9-----4h9-44---|
  ---------------------4h7-----------4h7-----44---|

|------------------------------------------|
|------------------------------------------|
|------------------------------------------|
|-444444-4444444--44--444444-4--444--4444--|
|-444444-4444444--44--444444-4--444--4444--|
|-444444-4444444--44--444444-4--444--4444--|

 [   OUTRO   ]
|-----------------------------------------------------------------|
|-----------------------------------------------------------------|
|-------------------------------------------------6h7p6-----------|
|---------------------------------4h9-4h9-4h9-6h7-------9-3h6p3---|
|-4h9-----4h9---------4h9-----4h9-------------------------------4-|
|-----4h7-----4h7-4h7-----4h7-------------------------------------|

 -----------------------------------------------------------------|
 -----------------------------------------------------------------|
 -----------------------------------------------------------------|
 -------------------------------------------------3h6-3h6-3h6-3h6-|
 -4h9-----4h9---------4h9-----4h9---------------------------------|
 -----4h7-----4h7-4h7-----4h7-----4h7-4h7-4h7-4h7-----------------|

 -----------------------------------------------------------------|
 -----------------------------------------------------------------|
 -------------------------------------------------6h7p6-----------|
 ---------------------------------4h9-4h9-4h9-6h7-------9-3h6p3---|
 -4h9-----4h9---------4h9-----4h9-------------------------------4-|
 -----4h7-----4h7-4h7-----4h7-------------------------------------|

 ----------------------------------------------------------------|
 ----------------------------------------------------------------|
 ----------------------------------------------------------------|
 -------------------------------------------------3h6-3h6-3*^----|
 -4h9-----4h9---------4h9-----4h9--------------------------------|
 -----4h7-----4h7-4h7-----4h7-----4h7-4h7-4h7-4h7----------------|


[------------- THE --- END ------------]
Related for Tractor Pull tab
Advertisement will be closed in 10 seconds