Within The Ruins - Cross Buster tab

"Cross Buster"

BY: WITHIN THE RUINS

Transcribed by Joe Keller
[Youtube user/V8EATR]
jkguitar@comcast.net

VIDEO:
COMING SOON!

Please Do Not Copy without Permission.

THANKS AND ENJOY!

Tuning
G# D# G# C# F A#


h	= hammer on
p	= pull off
/ \	= slides
*	= harmonic
^/v	= bend
s	= speed pick
d^/v	= dive w/ bar (u/d)
~	= vibr.
|	= break; start/end bar


	[GTR 1]
|---------------------------------------------|
|-7-10-7---6-9-7---7-6-9-6-7-10-7---6-9-7---7-|
|--------6-------6----------------6-------6---|
|---------------------------------------------|
|---------------------------------------------|
|---------------------------------------------|

	[GTR 2]
|----------------------------------------------------------------|
|-10-14-10-------12-10----10----12----10-14-10-------12-10----10-|
|----------10-13-------10----13----13----------10-13-------10----|
|----------------------------------------------------------------|
|----------------------------------------------------------------|
|----------------------------------------------------------------|

|-14p9----------9h14p9----------9h14-|
|------10----10--------10----10------|
|---------11--------------11---------|
|------------------------------------|
|------------------------------------|
|------------------------------------|

|-----------------------------------------------|
|-----------------------------------------------|
|-----------------------------------------------|
|---------0-6-3-------------11/12-------11-12-9-|
|-------------------------8---------------------|
|-4-44444-------7-4-6-6h9---------99999---------|

 -------------------------------------|
 ---------7-6---6-7-------------------|
 -------------7-----------------------|
 -------------------------0-6-3-------|
 -------------------------------------|
 -12-9-11-----------44444-------7-4-6-|

 ----------------------------------------|
 ------------------------------7-6---6-7-|
 ----------------------------------7-----|
 -------11-9-------3-4-6-----------------|
 -----8------------------5-2-4-----------|
 -6h9--------33333-----------------------|

|-----------------------------------------------|
|-7-10-9-7-6h7p6-----------6-9-7-6-9h10p9-7-6-7-|
|----------------7-4-7-4-6----------------------|
|-----------------------------------------------|
|-----------------------------------------------|
|-----------------------------------------------|

|----------------|
|----------------|
|----------------|
|----------------|
|-4s-11s-12s-11s-|
|----------------|

|-------------------------------------------------|
|-------------------------------------------------|
|-------------------6-------------------------4---|
|---------6h7p6p4h6---6-7---------6h7p6p4h6-7---7-|
|-4-7-6-4-----------------3-6-4-3-----------------|
|-4-7-6-4-----------------3-6-4-3-----------------|

 --------------------9----------------------|
 ---------9h10p9p7h9---9-10-----------------|
 -------------------------------------------|
 -------------------------------------------|
 -4-7-6-4-------------------3-6-4-3-4^v-----|
 -4-7-6-4-------------------3-6-4-3-----6^v-|

|------------------------14----------------------------|
|---------------------14----9h10p9---------------------|
|-11-11---11/14-11-14--------------10----10------6-----|
|------------------------------------------------------|
|-------9-----------------------------88----88\4---444-|
|------------------------------------------------------|

|------------------------13-13h14p13-|
|------------------------------------|
|-11-11---11/14-13-11-10-------------|
|------------------------------------|
|-------9----------------------------|
|------------------------------------|

 -16-------16----------17----------------|
 ----------------------------------------|
 ----13-13----13-13/14-------------------|
 -------------------------15-15-15-7-6\3-|
 ----------------------------------7-6\3-|
 ----------------------------------------|

|---------------------------------------------------|
|---------------------------------------------------|
|---------------------------------------------------|
|---------------------------------------------------|
|-3-33333-33-3--333-3-333-3-33--4-4s-4-44-4--4444-4-|
|-4-44444-44-4--444-4-444-4-44--4-4s-4-44-4--4444-4-|

 -----------------------------------------------|
 -----------------------------------------------|
 -----------------------------------------------|
 -----------------------------------------7-6-3-|
 -444-4-44--4-4s-4-44-4--4444-4--444-4-44-7-6-3-|
 -444-4-44--4-4s-4-44-4--4444-4--444-4-44-------|

|--------------------------------------------------------|
|-------14-----------------------------------------------|
|----10-------10-11s-10s-11s-13s-14s-13s-11s-10s-11s-----|
|-11-------11----------------------------------------11s-|
|--------------------------------------------------------|
|--------------------------------------------------------|
	[BKGRND GTR]
|------------------------------|
|------------------------------|
|------------------------------|
|------------------------------|
|-4-44444-44-4--444-4-444-4-44-|
|------------------------------|

 ---------------------------------------|
 ---------------------------------------|
 ---------------------------------------|
 --------------666-6--11-11-11-11-11-11-|
 -8-88888-88-8--------------------------|
 ---------------------------------------|

|------------------------------------------------------------------|
|------------------------------------------------------------------|
|------------------------------------------------------------------|
|------------------------------------------------------------------|
|-4-44444-44-44--444-4--444-4-44--4-44444-44-44--444-44--444-4-444-|
|-4-44444-44-44--444-4--444-4-44--4-44444-44-44--444-44--444-4-444-|

|---------------------------------------------------------------|
|---------------------12s-14s-10s-------------------------------|
|-14s-11s-13s---------------------10s-11s-13s-11s-10s-----------|
|-------------14s-11s---------------------------------11s-7s----|
|------------------------------------------------------------9s-|
|---------------------------------------------------------------|

 ---------------------------------------------------------------|
 ---------------------12s-14s-10s-------------------------------|
 -14s-11s-13s---------------------10s-11s-13s-11s-10s-----------|
 -------------14s-11s---------------------------------11s-7s----|
 ------------------------------------------------------------9s-|
 ---------------------------------------------------------------|

 -------------------------------------------------------|
 -------------------------------------------------------|
 -------------------------------------------------------|
 -11-*11-7----888888888444---------------------/7-6-/11-|
 ----------9~--------------4-3-4-7-6-333-333-4----------|
 --------------------------4-3-4-7-6-333-333-4----------|

 -----------------------------------------------|
 -----------------------------------------------|
 -------------13\10-----------------------------|
 ---------------------------6h7-----------6h7---|
 ---/8---66-3-11\8------4h9-----9-----4h9-----8-|
 -3----3-66-3-------3h6-----------3h6-----------|

 ------------14----------------------------------------|
 -10-9----------99-10----------------------------------|
 ------10-11----------------------10-------------13\10-|
 ---------------------------7-6------------------------|
 ---------------------333-3-----8------/8---66-3-11\8--|
 ---------------------444-4----------3----3-66-3-------|

 -------------------------------------------9-14-9----|
 ----------------------------------------10--------10-|
 -------------------------------------11--------------|
 ---------6h7-----------6h7--------11-----------------|
 -----4h9-----9-----4h9-----8-9h12--------------------|
 -3h6-----------3h6-----------------------------------|

 -------------------------------9-14-9----|
 ----------------------------10--------10-|
 -11s-----14s-10s---------11--------------|
 -----11s--------------11-----------------|
 -----------------9h12--------------------|
 -----------------------------------------|

|------------------------------------------------|
|------------------------------------------------|
|----------------------------------------------6-|
|-44444-33-3------44444-33-3------44444-33-3-----|
|------------4---------------4---------------4---|
|--------------3---------------3-----------------|

 ----------------------------------------------|
 ----------------------------------------------|
 ----------------------------------------------|
 -44444-33-3--------------------44444-33-3-----|
 ------------4---333-3-3-3-333-------------4---|
 --------------3-444-4-4-4-444---------------3-|

 ------------------------------------------------|
 ------------------------------------------------|
 ------------------------------------------------|
 -44444-33-3--------44444-33-3-------------------|
 ------------4-*4^-------------4---33333-3-3-333-|
 --------------------------------3-44444-4-4-444-|

---------------------------------------------------------------|
---------------------------------------------------------------|
------------------------------6------------------------------6-|
---------------------------------------------------------------|
-44444-44-4-6-3--4-444-44-4-3-4-44444-44-4-6-3--4-444-44-4-3-4-|
-44444-44-4-6-3--4-444-44-4-3---44444-44-4-6-3--4-444-44-4-3---|

 -----------------5h9p5---------|
 -6h9p6-----------------7-6h9---|
 -------7-6h7p6---------------6-|
 ---------------9---------------|
 -------------------------------|
 -------------------------------|

 -----------------------------------------------|
 -----------------------------------------------|
 ------------------------------6----------------|
 -----------------------------------------------|
 -44444-44-4-6-3--4-444-44-4-3-4-44444-44-4-6-3-|
 -44444-44-4-6-3--4-444-44-4-3---44444-44-4-6-3-|

 -----------------5h9p5---------|
 -6h9p6-----------------7-6h9---|
 -------7-6h7p6---------------6-|
 ---------------9---------------|
 -------------------------------|
 -------------------------------|

|---------------------------------------|
|---------------------------------------|
|-11~-10~-10-------10~-10-11-13-11~-10~-|
|------------11-------------------------|
|---------------11----------------------|
|---------------------------------------|

 -12^-------------------------------|
 -----14~--10-12-14-12~--10~-9~--6~-|
 -----------------------------------|
 -----------------------------------|
 -----------------------------------|
 -----------------------------------|

|-------9h14p9-------------------------|
|--------------10-9-----------/10-9----|
|-----7-------------11--------------10-|
|-3-4-4--------------------------------|
|-3-4----------------------------------|
|----------------------3^-0-3----------|

 --------------------7/9-------------------------|
 -----7-----7-9/10-7-----9-----6-----6-----------|
 ------------------------------------------------|
 -4h7---4h7----------------3h6---3h6-------------|
 ------------------------------------------------|
 --------------------------------------6^-3-0-7^-|

 --------------------7/9---------------------------|
 -----7-----7-9/10-7-----9-------------------------|
 --------------------------------4s-6s-------------|
 -4h7---4h7----------------3s-6s-------7s-6s-4s-3s-|
 --------------------------------------------------|
 --------------------------------------------------|

 --------------------7/9-------------------------|
 -----7-----7-9/10-7-----9-----6-----6-----------|
 ------------------------------------------------|
 -4h7---4h7----------------3h6---3h6-------------|
 ------------------------------------------------|
 --------------------------------------6^-3-0-7^-|

 --------------------7/9---------------------------|
 -----7-----7-9/10-7-----9-------------------------|
 --------------------------------4s-6s-------------|
 -4h7---4h7----------------3s-6s-------7s-6s-4s-3s-|
 --------------------------------------------------|
 --------------------------------------------------|

 -----------------------------------|
 -----7----------6-----6\2----------|
 --------------------------1--------|
 -4h7---4\3--3h6---3h6-------/7-6-4-|
 -------4\3-------------------------|
 -----------------------------------|

 ---------------------------------|
 -7--6------6-----6-\2------------|
 ----------------------1----------|
 -4--3--3h6---3h6-----------------|
 ---------------------------------|
 ------------------------/7-6-4-3-|

 -----------------------------------|
 -----7----------6-----6\2----------|
 --------------------------1--------|
 -4h7---4\3--3h6---3h6-------/7-6-4-|
 -------4\3-------------------------|
 -----------------------------------|

 --------------------------------|
 -7--6------6-----6-\2-----------|
 ----------------------1---------|
 -4--3--3h6---3h6----------------|
 ------------------------7-6-4-3-|
 ------------------------7-6-4-3-|

|------------------------------------------|
|------------------------------------------|
|------------------------------------------|
|------------------------------------------|
|-3-3-333-----33-33-3--3-3-333--33-33-3----|
|-4-4-444-4^--44-44-4--4-4-444--44-44-4-4^-|

|------------------------------------------------------|
|------------------------------------------------------|
|-/6-5---6-5-6-8-9-8-6-5~-----------/8-5----------/5-8-|
|------------------------------------------------------|
|---------------------------3-3-333-------33-33-3------|
|---------------------------4-4-444-------44-44-4------|

 ----------------------------------------------|
 ----------------------------------------------|
 ---------/8-5----------/5-8-------------------|
 -------------------------------------------7~-|
 -3-3-333-------33-33-3-------33-33-3333-33----|
 -4-4-444-------44-44-4-------44-44-4444-44----|

 -------------------------------------------------------|
 -------------------------------------------------------|
 ----------------------------------------------------8~-|
 -----------------------------7~------------------------|
 -33-33-3-33333-33-33-3333-33----33-33-3-33333-33-33----|
 -44-44-4-44444-44-44-4444-44----44-44-4-44444-44-44----|
Tap to rate this tab
 
# A B C D E F G H I J K L M N O P Q R S T U V W X Y Z