Song name
# A B C D E F G H I J K L M N O P Q R S T U V W X Y Z

Without Permission - In The Headlights tab

Intro Part One - Guitars One and Two

E|----------------------------------------------------------------||
B|----------------------------------------------------------------||
G|-10-10-10-----------12-12-12-----------14-14-14-14--------------||
D|-10-10-10--0-0-0-0--12-12-12--0-0-0-0--14-14-14-14--0-0-0-0-----||
A|-8--8--8---0-0-0-0--10-10-10--0-0-0-0--12-12-12-12--0-0-0-0-----||
D|-8--8--8---0-0-0-0--10-10-10--0-0-0-0--12-12-12-12--0-0-0-0-----||
PM           . . . .            . . . .               . . . .

E|----------------------------------------------------------------||
B|----------------------------------------------------------------||
G|-9-9-9-9--10-10-10-10--12---------------------------------------||
D|-0-0-0-0--0--0--0--0---0----------------------------------------||
A|-7-7-7-7--8--8--8--8---10---------------------------------------||
D|----------------------------------------------------------------||

E|----------------------------------------------------------------||
B|----------------------------------------------------------------||
G|-10-10-10-----------12-12-12-----------14-14-14-14--------------||
D|-10-10-10--0-0-0-0--12-12-12--0-0-0-0--14-14-14-14--0-0-0-0-----||
A|-8--8--8---0-0-0-0--10-10-10--0-0-0-0--12-12-12-12--0-0-0-0-----||
D|-8--8--8---0-0-0-0--10-10-10--0-0-0-0--12-12-12-12--0-0-0-0-----||
PM           . . . .            . . . .               . . . .

E|----------------------------------------------------------------||
B|----------------------------------------------------------------||
G|-9-----6--------------------------------------------------------||
D|-0-----0--------------------------------------------------------||
A|-7-----4--------------------------------------------------------||
D|----------------------------------------------------------------||

Intro Part Two - Guitars One and Two

E|-----------------------------------------------------------------||
B|-----------------------------------------------------------------||
G|-----------------------------------------------------------------||
D|-0-0-0-0-0-0-0---0-0-0-0-0-0-0---0-0-0-0-0-0-0---0-0-0-0-0-------||
A|-0-0-0-0-0-0-0---0-0-0-0-0-0-0---0-0-0-0-0-0-0---0-0-0-0-0-3*-4*-||
D|-0-0-0-0-0-0-0---0-0-0-0-0-0-0---0-0-0-0-0-0-0---0-0-0-0-0-3*-4*-||
PM . . . . . . .   . . . . . . .   . . . . . . .   . . . . .

E|------------------------------------------------------------------||
B|------------------------------------------------------------------||
G|------------------------------------------------------------------||
D|-0-0-0-0-0-0-0---0-0-0-0-0-0-0---0-0-0-0-0-0-0---0-0-0-0-0-2-3-2-3||
A|-0-0-0-0-0-0-0---0-0-0-0-0-0-0---0-0-0-0-0-0-0---0-0-0-0-0-2-3-2-3||
D|-0-0-0-0-0-0-0---0-0-0-0-0-0-0---0-0-0-0-0-0-0---0-0-0-0-0-2-3-2-3||
PM . . . . . . .   . . . . . . .   . . . . . . .   . . . . .

E|----------------------------------------------------------------||
B|----------------------------------------------------------------||
G|----------------------------------------------------------------||
D|-0-0-0-0--1---3-0--0-0-0-0--1---3-0--0-0-0-0--1---3-0--0-0-0-0--||
A|-0-0-0-0----3------0-0-0-0----3------0-0-0-0----3------0-0-0-0--||
D|-0-0-0-0-----------0-0-0-0-----------0-0-0-0-----------0-0-0-0--||
PM . . . .           . . . .           . . . .           . . . .

E|----------------------------------------------------------------||
B|----------------------------------------------------------------||
G|--------9h10p9--------------------------------------------------||
D|--9h10-----------0----------------------------------------------||
A|-----------------0-(let ring)-----------------------------------||
D|-----------------0----------------------------------------------||

Verse - Guitar One (x2)

E|----------------------------------------------------------------||
B|----------------------------------------------------------------||
G|-------------------------------------------10-10-10-12-12-12----||
D|-0-0-0--0-0-0--0-0-0--1-1-1--0-0-0--0-0-0--10-10-10-12-12-12----||
A|-0-0-0--0-0-0--0-0-0--1-1-1--0-0-0--0-0-0--8--8--8--10-10-10----||
D|-0-0-0--0-0-0--0-0-0--1-1-1--0-0-0--0-0-0--8--8--8--10-10-10----||
PM        . . .                       . . .

Verse - Guitar Two (x2)

E|------------------------------------------------------------------||
B|------------------------------------------------------------------||
G|--------14-14-14-------15-15-15-------14-14-14--10-10-10-12-12-12-||
D|-0-0-0--0--0--0--0-0-0-0--0--0--0-0-0-0--0--0---10-10-10-12-12-12-||
A|-0-0-0--12-12-12-0-0-0-13-13-13-0-0-0-12-12-12--8--8--8--10-10-10-||
D|-0-0-0-----------0-0-0----------0-0-0-----------8--8--8--10-10-10-||

Pre-Chorus - Guitar One

E|----------------------------------------------------------------||
B|----------------------------------------------------------------||
G|-10---------10----10-10/12----------12--------------------------||
D|-10----10------8--10-10/12----12--------------------------------||
A|-8---8----8-------8--8-/10-10----10-----------------------------||
D|-8----------------8--8-/10--------------------------------------||

Pre-Chorus - Guitar Two

E|----------------------------------------------------------------||
B|----------------------------------------------------------------||
G|-10--------------10--10-/-12------------------------------------||
D|-10--------------10--10-/-12------------------------------------||
A|-8---(lr)--------8---8--/-10---///////////--(pick slide)--------||
D|-8---------------8---8--/-10---///////////----------------------||

Chorus - Guitar One and Two

E|----------------------------------------------------------------||
B|----------------------------------------------------------------||
G|---------------------------12-12-12-12-12-10-10-10-10-10-10-10--||
D|-0-0-0-0-0-3-0-0-0-0-0-0-0-12-12-12-12-12-10-10-10-10-10-10-10--||
A|-0-0-0-0-0-3-0-0-0-0-0-0-0-10-10-10-10-10-8--8--8--8--8--8--8---||
D|-0-0-0-0-0-3-0-0-0-0-0-0-0-10-10-10-10-10-8--8--8--8--8--8--8---||


E|----------------------------------------------------------------||
B|----------------------------------------------------------------||
G|-9-9-9-9-9-9-9-9-9-10-10-10-10-10-10-10-10-10-10-10-10-10-10----||
D|-9-9-9-9-9-9-9-9-9-9--9--9--10-10-10-10-10-8--8--8--8--8--8-----||
A|-7-7-7-7-7-7-7-7-7-7--7--7--8--8--8--8--8--8--8--8--8--8--8-----||
D|-7-7-7-7-7-7-7-7-7-7--7--7--8--8--8--8--8--8--8--8--8--8--8-----||

Verse - Guitar One (x2)

E|----------------------------------------------------------------||
B|----------------------------------------------------------------||
G|-------------------------------------------10-10-10-12-12-12----||
D|-0-0-0--0-0-0--0-0-0--1-1-1--0-0-0--0-0-0--10-10-10-12-12-12----||
A|-0-0-0--0-0-0--0-0-0--1-1-1--0-0-0--0-0-0--8--8--8--10-10-10----||
D|-0-0-0--0-0-0--0-0-0--1-1-1--0-0-0--0-0-0--8--8--8--10-10-10----||
PM        . . .                       . . .

Verse - Guitar Two (x2)

E|------------------------------------------------------------------||
B|------------------------------------------------------------------||
G|--------14-14-14-------15-15-15-------14-14-14--10-10-10-12-12-12-||
D|-0-0-0--0--0--0--0-0-0-0--0--0--0-0-0-0--0--0---10-10-10-12-12-12-||
A|-0-0-0--12-12-12-0-0-0-13-13-13-0-0-0-12-12-12--8--8--8--10-10-10-||
D|-0-0-0-----------0-0-0----------0-0-0-----------8--8--8--10-10-10-||

Pre-Chorus - Guitar One

E|----------------------------------------------------------------||
B|----------------------------------------------------------------||
G|-10---------10----10-10/12----------12--------------------------||
D|-10----10------8--10-10/12----12--------------------------------||
A|-8---8----8-------8--8-/10-10----10-----------------------------||
D|-8----------------8--8-/10--------------------------------------||

Pre-Chorus - Guitar Two

E|----------------------------------------------------------------||
B|----------------------------------------------------------------||
G|-10--------------10--10-/-12------------------------------------||
D|-10--------------10--10-/-12------------------------------------||
A|-8---(lr)--------8---8--/-10---///////////--(pick slide)--------||
D|-8---------------8---8--/-10---///////////----------------------||

Chorus - Guitar One and Two (x2)

E|----------------------------------------------------------------||
B|----------------------------------------------------------------||
G|---------------------------12-12-12-12-12-10-10-10-10-10-10-10--||
D|-0-0-0-0-0-3-0-0-0-0-0-0-0-12-12-12-12-12-10-10-10-10-10-10-10--||
A|-0-0-0-0-0-3-0-0-0-0-0-0-0-10-10-10-10-10-8--8--8--8--8--8--8---||
D|-0-0-0-0-0-3-0-0-0-0-0-0-0-10-10-10-10-10-8--8--8--8--8--8--8---||


E|----------------------------------------------------------------||
B|----------------------------------------------------------------||
G|-9-9-9-9-9-9-9-9-9-10-10-10-10-10-10-10-10-10-10-10-10-10-10----||
D|-9-9-9-9-9-9-9-9-9-9--9--9--10-10-10-10-10-8--8--8--8--8--8-----||
A|-7-7-7-7-7-7-7-7-7-7--7--7--8--8--8--8--8--8--8--8--8--8--8-----||
D|-7-7-7-7-7-7-7-7-7-7--7--7--8--8--8--8--8--8--8--8--8--8--8-----||

On second time through of Chorus, Guitar Two plays:

E|----------------------------------------------------------------||
B|----------------------------------------------------------------||
G|--10---9--10--12--14--12--14--15---17---------------------------||
D|----------------------------------------------------------------||
A|----------------------------------------------------------------||
D|----------------------------------------------------------------||

Breakdown Part One: Guitars One and Two (x2)

E|----------------------------------------------------------------||
B|----------------------------------------------------------------||
G|----------------------------------------------------------------||
D|-0-0-0--3*-3*-3*-0-0-0--4*-4*-4*-0-0-0--3*-3*-3*-5-5-5-6-3------||
A|-0-0-0--3*-3*-3*-0-0-0--4*-4*-4*-0-0-0--3*-3*-3*-5-5-5-6-3------||
D|-0-0-0--3*-3*-3*-0-0-0--4*-4*-4*-0-0-0--3*-3*-3*-5-5-5-6-3------||
PM . . .           . . .           . . .             

Breakdown Part Two: Guitars One and Two (x8)

E|----------------------------------------------------------------||
B|----------------------------------------------------------------||
G|----------------------------------------------------------------||
D|-5-5-5--6--3--0-------------------------------------------------||
A|-5-5-5--6--3--0-------------------------------------------------||
D|-5-5-5--6--3--0-------------------------------------------------||
During third time around Guitar Two does a pickslide and comes in with
this part on fourth rendition and plays till the end of breakdown:

E|----------------------------------------------------------------||
B|----------------------------------------------------------------||
G|----------------------------------------------------------------||
D|--17--17--17--18--15--12----------------------------------------||
A|----------------------------------------------------------------||
D|----------------------------------------------------------------||

Chorus - Guitar One and Two (x2)

E|----------------------------------------------------------------||
B|----------------------------------------------------------------||
G|---------------------------12-12-12-12-12-10-10-10-10-10-10-10--||
D|-0-0-0-0-0-3-0-0-0-0-0-0-0-12-12-12-12-12-10-10-10-10-10-10-10--||
A|-0-0-0-0-0-3-0-0-0-0-0-0-0-10-10-10-10-10-8--8--8--8--8--8--8---||
D|-0-0-0-0-0-3-0-0-0-0-0-0-0-10-10-10-10-10-8--8--8--8--8--8--8---||

E|----------------------------------------------------------------||
B|----------------------------------------------------------------||
G|-9-9-9-9-9-9-9-9-9-10-10-10-10-10-10-10-10-10-10-10-10-10-10----||
D|-9-9-9-9-9-9-9-9-9-9--9--9--10-10-10-10-10-8--8--8--8--8--8-----||
A|-7-7-7-7-7-7-7-7-7-7--7--7--8--8--8--8--8--8--8--8--8--8--8-----||
D|-7-7-7-7-7-7-7-7-7-7--7--7--8--8--8--8--8--8--8--8--8--8--8-----||

On second time through of Chorus, Guitar Two plays:

E|----------------------------------------------------------------||
B|----------------------------------------------------------------||
G|--10---9--10--12--14--12--14--15---17---------------------------||
D|----------------------------------------------------------------||
A|----------------------------------------------------------------||
D|----------------------------------------------------------------||

Breakdown Two : Guitar One (x2)

E|----------------------------------------------------------------||
B|----------------------------------------------------------------||
G|----------------------------------------------------------------||
D|-------------------------0-0------------------------------------||
A|-------------------------0-0------------------------------------||
D|-3*-/-4*-/-5*-\-4*-\-3*--0-0------------------------------------||
PM                         . .

Breakdown Two: Guitar Two (x2)

E|----------------------------------------------------------------||
B|----------------------------------------------------------------||
G|----------------------------------------------------------------||
D|-------------------------0-0------------------------------------||
A|-------------------------0-0------------------------------------||
D|-------------------------0-0------------------------------------||
PM                         . .
Outro: Guitar One (x4)

E|----------------------------------------------------------------||
B|----------------------------------------------------------------||
G|----------------------------------------------------------------||
D|----------------------------------------------------------------||
A|----------------------------------------------------------------||
D|-3*-/-4*-/-5*-\-4*-\-3*-----------------------------------------||

Outro: Guitar Two (x4)

E|----------------------------------------------------------------||
B|----------------------------------------------------------------||
G|----------------------------------------------------------------||
D|-0--1--0--1--0----1---0----1--0--6------------------------------||
A|-0--1--0--1--0----1---0----1--0--6------------------------------||
D|-0--1--0--1--0----1---0----1--0--6------------------------------||

www.withoutpermission.co.uk
Tap to rate this tab
 
# A B C D E F G H I J K L M N O P Q R S T U V W X Y Z