Song name
# A B C D E F G H I J K L M N O P Q R S T U V W X Y Z

Without Permission - Safe From You tab

-------------------------------------------------------------------------------
                        SAFE FROM YOU – Without Permission
-------------------------------------------------------------------------------
Tabbed by:
Email:

Tuning: Drop D (DADGBE)

Verse (x5)

e|---------------------------------------------0-0-0-0-0-0-0-0-0-0-0-0-0-0---|
B|---------------------------------------------0-0-0-0-0-0-0-0-0-0-0-0-0-0---|
G|--5-5-5-5-4-4-4-4-4-4-4-5-5-5-5-4-4-4-4-4-4--2-2-2-2-4-4-4-4-4-4-2-2-2-2---|
D|--5-5-5-5-5-5-5-5-5-5-5-5-5-5-5-5-5-5-5-5-5--2-2-2-2-2-2-2-2-2-2-2-2-2-2---|
A|--3-3-3-3-3-3-3-3-3-3-3-3-3-3-3-3-3-3-3-3-3--0-0-0-0-0-0-0-0-0-0-0-0-0-0---|
D|---------------------------------------------------------------------------|

e|-0-0-0-0-0-0---------------------------------------------------------------|
B|-0-0-0-0-0-0---------------------------------------------------------------|
G|-4-4-4-4-4-4---------------------------------------------------------------|
D|-2-2-2-2-2-2---------------------------------------------------------------|
A|-0-0-0-0-0-0---------------------------------------------------------------|
D|---------------------------------------------------------------------------|

Chorus (x1)

e|---------------------------------------------------------------------------|
B|---------------------------------------------------------------------------|
G|-5-5-5-5-5-5-5-5-5-5-7-7-7-7-7-7-7-7-7-7-7-5-5-5-5-5-5-5-5-5-5-4-4-4-4-4-4-|
D|-5-5-5-5-5-5-5-5-5-5-5-5-5-5-5-5-5-5-5-5-5-3-3-3-3-3-3-3-3-3-3-2-2-2-2-2-2-|
A|-3-3-3-3-3-3-3-3-3-3-5-5-5-5-5-5-5-5-5-5-5-3-3-3-3-3-3-3-3-3-3-2-2-2-2-2-2-|
D|---------------------5-5-5-5-5-5-5-5-5-5-5-3-3-3-3-3-3-3-3-3-3-2-2-2-2-2-2-|

e|---------------------------------------------------------------------------|
B|---------------------------------------------------------------------------|
G|-----5------7--5-5-5-5-5-5-5-5-5-5-7-7-7-7-7-7-7-7-9-9-9-9-9-9-9-9-9-9-----|
D|-----3------7--3-3-3-3-3-3-3-3-3-3-5-5-5-5-5-5-5-5-7-7-7-7-7-7-7-7-7-7-----|
A|-3-3-3--5-5-5--3-3-3-3-3-3-3-3-3-3-5-5-5-5-5-5-5-5-7-7-7-7-7-7-7-7-7-7-----|
D|-3-3-3--5-5-5--3-3-3-3-3-3-3-3-3-3-5-5-5-5-5-5-5-5-7-7-7-7-7-7-7-7-7-7-----|
PM . .    . .

E|---------------------------------------------------------------------------|
B|---------------------------------------------------------------------------|
G|-12-12-12-12-12-12-12-12-12-12--5------------------------------------------|
D|-10-10-10-10-10-10-10-10-10-10--3-(let ring)-------------------------------|
A|-10-10-10-10-10-10-10-10-10-10--3------------------------------------------|
D|-10-10-10-10-10-10-10-10-10-10--3------------------------------------------|

Pre Verse (x1)

e|---------------------------------------------------------------------------|
B|---------------------------------------------------------------------------|
G|--5-5-5-5-5-5-5-4—4h5p4--5-5-5-5-5-5-5-4—4h5p4—-2-2-2-2-2-2-2-4—2h4p2------|
D|--5-5-5-5-5-5-5-5--------5-5-5-5-5-5-5-5--------2-2-2-2-2-2-2-2------------|
A|--3-3-3-3-3-3-3-3--------3-3-3-3-3-3-3-3--------0-0-0-0-0-0-0-0------------|
D|---------------------------------------------------------------------------|
PM    . .   . . .            . .   . . .            . .   . . .   

e|---------------------------------------------------------------------------|
B|---------------------------------------------------------------------------|
G|---2-2-2-2-2-2-2-4—2h4p2--------------------------------------------------|
D|---2-2-2-2-2-2-2-2---------------------------------------------------------|
A|---0-0-0-0-0-0-0-0---------------------------------------------------------|
D|---------------------------------------------------------------------------|
PM     . .   . . .

Verse (x5)

e|---------------------------------------------0-0-0-0-0-0-0-0-0-0-0-0-0-0---|
B|---------------------------------------------0-0-0-0-0-0-0-0-0-0-0-0-0-0---|
G|--5-5-5-5-4-4-4-4-4-4-4-5-5-5-5-4-4-4-4-4-4--2-2-2-2-4-4-4-4-4-4-2-2-2-2---|
D|--5-5-5-5-5-5-5-5-5-5-5-5-5-5-5-5-5-5-5-5-5--2-2-2-2-2-2-2-2-2-2-2-2-2-2---|
A|--3-3-3-3-3-3-3-3-3-3-3-3-3-3-3-3-3-3-3-3-3--0-0-0-0-0-0-0-0-0-0-0-0-0-0---|
D|---------------------------------------------------------------------------|

e|-0-0-0-0-0-0---------------------------------------------------------------|
B|-0-0-0-0-0-0---------------------------------------------------------------|
G|-4-4-4-4-4-4---------------------------------------------------------------|
D|-2-2-2-2-2-2---------------------------------------------------------------|
A|-0-0-0-0-0-0---------------------------------------------------------------|
D|---------------------------------------------------------------------------|

Chorus (x1)

e|---------------------------------------------------------------------------|
B|---------------------------------------------------------------------------|
G|-5-5-5-5-5-5-5-5-5-5-7-7-7-7-7-7-7-7-7-7-7-5-5-5-5-5-5-5-5-5-5-4-4-4-4-4-4-|
D|-5-5-5-5-5-5-5-5-5-5-5-5-5-5-5-5-5-5-5-5-5-3-3-3-3-3-3-3-3-3-3-2-2-2-2-2-2-|
A|-3-3-3-3-3-3-3-3-3-3-5-5-5-5-5-5-5-5-5-5-5-3-3-3-3-3-3-3-3-3-3-2-2-2-2-2-2-|
D|---------------------5-5-5-5-5-5-5-5-5-5-5-3-3-3-3-3-3-3-3-3-3-2-2-2-2-2-2-|

e|---------------------------------------------------------------------------|
B|---------------------------------------------------------------------------|
G|-----5------7--5-5-5-5-5-5-5-5-5-5-7-7-7-7-7-7-7-7-9-9-9-9-9-9-9-9-9-9-----|
D|-----3------7—-3-3-3-3-3-3-3-3-3-3-5-5-5-5-5-5-5-5-7-7-7-7-7-7-7-7-7-7-----|
A|-3-3-3--5-5-5--3-3-3-3-3-3-3-3-3-3-5-5-5-5-5-5-5-5-7-7-7-7-7-7-7-7-7-7-----|
D|-3-3-3--5-5-5--3-3-3-3-3-3-3-3-3-3-5-5-5-5-5-5-5-5-7-7-7-7-7-7-7-7-7-7-----|
PM . .    . .

E|---------------------------------------------------------------------------|
B|---------------------------------------------------------------------------|
G|-12-12-12-12-12-12-12-12-12-12--5-5-5-5-5-5-5-5-5-5-5-5-5-5-5-5------------|
D|-10-10-10-10-10-10-10-10-10-10--3-3-3-3-3-3-3-3-3-3-3-3-3-3-3-3------------|
A|-10-10-10-10-10-10-10-10-10-10--3-3-3-3-3-3-3-3-3-3-3-3-3-3-3-3------------|
D|-10-10-10-10-10-10-10-10-10-10--3-3-3-3-3-3-3-3-3-3-3-3-3-3-3-3------------|

Bridge 

e|---------------------------------------------------------------------------|
B|---------------------------------------------------------------------------|
G|-9-9-9-9-9-9-9-9-9-9-7-7-7-7-7-7-7-7-7-5-5-5-5-5-5-5-5-5-12-12-12-12-12-12-|
D|-7-7-7-7-7-7-7-7-7-7-5-5-5-5-5-5-5-5-5-3-3-3-3-3-3-3-3-3-10-10-10-10-10-10-|
A|-7-7-7-7-7-7-7-7-7-7-5-5-5-5-5-5-5-5-5-3-3-3-3-3-3-3-3-3-10-10-10-10-10-10-|
D|-7-7-7-7-7-7-7-7-7-7-5-5-5-5-5-5-5-5-5-3-3-3-3-3-3-3-3-3-10-10-10-10-10-10-|

e|---------------------------------------------------------------------------|
B|---------------------------------------------------------------------------|
G|-12-12-9-9-9-9-9-9-9-9-7-7-7-7-7-7-7-7-5-5-5-5-5-5-5-5-7-7-7-7-7-4-4-4-4-4-|
D|-10-10-7-7-7-7-7-7-7-7-5-5-5-5-5-5-5-5-3-3-3-3-3-3-3-3-5-5-5-5-5-2-2-2-2-2-|
A|-10-10-7-7-7-7-7-7-7-7-5-5-5-5-5-5-5-5-3-3-3-3-3-3-3-3-5-5-5-5-5-2-2-2-2-2-|
D|-10-10-7-7-7-7-7-7-7-7-5-5-5-5-5-5-5-5-3-3-3-3-3-3-3-3-5-5-5-5-5-2-2-2-2-2-|

Chorus

e|---------------------------------------------------------------------------|
B|---------------------------------------------------------------------------|
G|-----------5-5-5-5-5-5-5-5--5-5-5-5-5-5-5-5--------------------------------|
D|--(clean)--5-5-5-5-5-5-5-5--5-5-5-5-5-5-5-5-(turn on distortion here)------|
A|-----------3-3-3-3-3-3-3-3--0-0-0-0-0-0-0-0--------------------------------|
D|----------------------------5-5-5-5-5-5-5-5--------------------------------|

e|---------------------------------------------------------------------------|
B|---------------------------------------------------------------------------|
G|--5-5-5-5-5-5-5-5-4-4-4-4-4-4-4-4-------5-------7--5-5-5-5-5-5-5-5---------|
D|--3-3-3-3-3-3-3-3-2-2-2-2-2-2-2-2-------3-------5--3-3-3-3-3-3-3-3---------|
A|--3-3-3-3-3-3-3-3-2-2-2-2-2-2-2-2--3-3--3--5-5--5--3-3-3-3-3-3-3-3---------|
D|--3-3-3-3-3-3-3-3-2-2-2-2-2-2-2-2--3-3--3--5-5--5--3-3-3-3-3-3-3-3---------|
PM                                   . .     . .




e|---------------------------------------------------------------------------|
B|---------------------------------------------------------------------------|
G|-7-7-7-7-7-7-7-7-7-9-9-9-9-9-9-9-9-12-12-12-12-12-12-12-12-----------------|
D|-5-5-5-5-5-5-5-5-5-7-7-7-7-7-7-7-7-10-10-10-10-10-10-10-10-----------------|
A|-5-5-5-5-5-5-5-5-5-7-7-7-7-7-7-7-7-10-10-10-10-10-10-10-10-----------------|
D|-5-5-5-5-5-5-5-5-5-7-7-7-7-7-7-7-7-10-10-10-10-10-10-10-10-----------------|

Solo (Backing)

e|---------------------------------------------------------------------------|
B|---------------------------------------------------------------------------|
G|-5-5-5-5-5-5-5-5-5-7-7-7-7-5-5-5-5-5-5-5-5-7-7-7-7-9-9-9-9-9-9-9-9-9-9-----|
D|-5-5-5-5-5-5-5-5-5-7-7-7-7-5-5-5-5-5-5-5-5-7-7-7-7-9-9-9-9-9-9-9-9-9-9-----|
A|-3-3-3-3-3-3-3-3-3-5-5-5-5-3-3-3-3-3-3-3-3-5-5-5-5-7-7-7-7-7-7-7-7-7-7-----|
D|-3-3-3-3-3-3-3-3-3-5-5-5-5-3-3-3-3-3-3-3-3-5-5-5-5-7-7-7-7-7-7-7-7-7-7-----|

e|---------------------------------------------------------------------------|
B|---------------------------------------------------------------------------|
G|-7-7-7-7-7-7-7-7-7-12-12-12-12-12-12-12-12-5-5-5-5-5-5-5-5-9-9-9-9-9-9-9-9-|
D|-7-7-7-7-7-7-7-7-7-12-12-12-12-12-12-12-12-5-5-5-5-5-5-5-5-9-9-9-9-9-9-9-9-|
A|-5-5-5-5-5-5-5-5-5-10-10-10-10-10-10-10-10-3-3-3-3-3-3-3-3-7-7-7-7-7-7-7-7-|
D|-5-5-5-5-5-5-5-5-5-10-10-10-10-10-10-10-10-3-3-3-3-3-3-3-3-7-7-7-7-7-7-7-7-|

e|---------------------------------------------------------------------------|
B|---------------------------------------------------------------------------|
G|-7-7-7-7-7-7-7-7-7-5-5-5-5-5-5-5-7-7-7-7-7-4-4-4-4-4-----------------------|
D|-7-7-7-7-7-7-7-7-5-5-5-5-5-5-5-5-7-7-7-7-7-2-2-2-2-2-----------------------|
A|-5-5-5-5-5-5-5-5-3-3-3-3-3-3-3-3-5-5-5-5-5-2-2-2-2-2-----------------------|
D|-5-5-5-5-5-5-5-5-3-3-3-3-3-3-3-3-5-5-5-5-5-2-2-2-2-2-----------------------|

Solo (Lead)

e|---------------------------------------------------------------------------|
B|---------------------------------------------------------------------------|
G|-5-5-5-5-5-5-5-5-5-7-7-7-7-5-5-5-5-5-5-5-5-7-7-7-7-9-9-9-9-9-9-9-9-9-9-----|
D|-5-5-5-5-5-5-5-5-5-7-7-7-7-5-5-5-5-5-5-5-5-5-5-5-5-------------------------|
A|-3-3-3-3-3-3-3-3-3-5-5-5-5-3-3-3-3-3-3-3-3-5-5-5-5-------------------------|
D|-3-3-3-3-3-3-3-3-3-5-5-5-5-3-3-3-3-3-3-3-3-5-5-5-5-------------------------|

e|---------------------------------------------------------------------------|
B|---------------------------------------------------------------------------|
G|-7-7-7-7-7-7-7-7-7-12-12-12-12-12-12-12-12-5-5-5-5-5-5-5-5-9-9-9-9-9-9-9-9-|
D|---------------------------------------------------------------------------|
A|---------------------------------------------------------------------------|
D|---------------------------------------------------------------------------|

e|---------------------------------------------------------------------------|
B|---------------------------------------------------------------------------|
G|-7-7-7-7-7-7-7-7-7-5-5-5-5-5-5-5-7-7-7-7-7-4-4-4-4-4-----------------------|
D|---------------------------------------------------------------------------|
A|---------------------------------------------------------------------------|
D|---------------------------------------------------------------------------|

Outro (Acoustic)

e|---------------------------------------------------------------------------|
B|---------------------------------------------------------------------------|
G|-5-5-5-5-5-5-5-5-5-5-5-5-5-5-5-5-5-5-5-5-5-5-5-5-5-5-5-5-5-5-5-5-5---------|
D|-5-5-5-5-5-5-5-5-5-5-5-5-5-5-5-5-5-5-5-5-5-5-5-5-5-5-5-5-5-5-5-5-5---------|
A|-3-3-3-3-3-3-3-3-0-0-0-0-0-0-0-0-3-3-3-3-3-3-3-3-3-3-3-3-3-3-3-3-3---------|
D|-----------------5-5-5-5-5-5-5-5-3-3-3-3-3-3-3-3-3-3-3-3-3-3-3-3-3---------|

e|---------------------------------------------------------------------------|
B|-5-5-5-5-5-5-5-5---------------------------------13-13-13-13-13-13-13-13---|
G|-5-5-5-5-5-5-5-5-7-7-7-7-7-7-7-7-9-9-9-9-9-9-9-9-12-12-12-12-12-12-12-12---|
D|-3-3-3-3-3-3-3-3-5-5-5-5-5-5-5-5-7-7-7-7-7-7-7-7-10-10-10-10-10-10-10-10---|
A|-3-3-3-3-3-3-3-3-5-5-5-5-5-5-5-5-7-7-7-7-7-7-7-7-10-10-10-10-10-10-10-10---|
D|-3-3-3-3-3-3-3-3-5-5-5-5-5-5-5-5-7-7-7-7-7-7-7-7-10-10-10-10-10-10-10-10---|

End On:

e|---------------------------------------------------------------------------|
B|-5-------------------------------------------------------------------------|
G|-5-------------------------------------------------------------------------|
D|-3---(let ring)------------------------------------------------------------|
A|-3-------------------------------------------------------------------------|
D|-3-------------------------------------------------------------------------|
Tap to rate this tab
 
# A B C D E F G H I J K L M N O P Q R S T U V W X Y Z