Song name
# A B C D E F G H I J K L M N O P Q R S T U V W X Y Z

Without Permission - End Of An Error tab

-------------------------------------------------------------------------------
                        THE END OF AN ERROR – Without Permission
-------------------------------------------------------------------------------
Tabbed by:
Email:

Tuning: Drop D (DADGBE)

Intro - Clean

E|----------0----------------0----------------0---------------0--------------|
B|------7-----7---7------7-----7---7------7-----7---7-----7-----7---7--------|
G|----0---0-----0------0---0-----0------0---0-----0-----0---0-----0----------|
D|---------------------------------------------------------------------------|
A|--7----------------7----------------5---------------5----------------------|
D|---------------------------------------------------------------------------|

E|----------0----------------0----------------0---------------0--------------|
B|------5-----5---5------5-----5---5------5-----5---5-----5-----5---5--------|
G|----0---0-----0------0---0-----0------0---0-----0-----0---0-----0----------|
D|---------------------------------------------------------------------------|
A|--3----------------3----------------5---------------5----------------------|
D|---------------------------------------------------------------------------|

Verse I – Clean (x4)

E|-0-0-0-0-0-0-0-0-0-0-0-0-0-0-0-0-0-0-0-0-0-0-0-0-0-0-0-0-0-0-0-0-0-0-0-0---|
B|-7-7-7-7-7-7-7-7-7-7-7-7-7-7-7-7-7-7-7-7-7-7-7-7-5-5-5-5-5-5-5-5-5-5-5-5---|
G|-0-0-0-0-0-0-0-0-0-0-0-0-0-0-0-0-0-0-0-0-0-0-0-0-0-0-0-0-0-0-0-0-0-0-0-0---|
D|-0-0-0-0-0-0-0-0-0-0-0-0-0-0-0-0-0-0-0-0-0-0-0-0-0-0-0-0-0-0-0-0-0-0-0-0---|
A|-7-7-7-7-7-7-7-7-7-7-7-7-5-5-5-5-5-5-5-5-5-5-5-5-3-3-3-3-3-3-3-3-3-3-3-3---|
D|---------------------------------------------------------------------------|

E|-0-0-0-0-0-0-0-0-0-0-0-0---------------------------------------------------|
B|-5-5-5-5-5-5-5-5-5-5-5-5---------------------------------------------------|
G|-0-0-0-0-0-0-0-0-0-0-0-0---------------------------------------------------|
D|-0-0-0-0-0-0-0-0-0-0-0-0---------------------------------------------------|
A|-5-5-5-5-5-5-5-5-5-5-5-5---------------------------------------------------|
D|---------------------------------------------------------------------------|

Heavy Break – Distorted (x2)

E|-----------------------5-5-------------------------------------------------|
B|-8-8-8-8-8--7-7-7-7-7--7-7-5-5-5-5-5--5-5-5-5-5-5-5-5----------------------|
G|-0-0-0-0-0--0-0-0-0-0--0-0-0-0-0-0-0--0-0-0-0-0-0-0-0----------------------|
D|-0-0-0-0-0--0-0-0-0-0------0-0-0-0-0--0-0-0-0-0-0-0-0----------------------|
A|-7-7-7-7-7--7-7-7-7-7------3-3-3-3-3--3-3-3-3-3—3h5-5----------------------|
D|---------------------------------------------------------------------------|

Verse II – Clean (x1)

E|---------------------------------------------------------------------------|
B|-12-12-12-12-12-10-10-10-10-10-10-10-12-12-12-12-12-10-10-10-10-10-15-15---|
G|-0—-0--0--0--0--0--0--0--0--0--0--0--0—-0--0--0—-0--0--0--0--0--0--0—-0----|
D|-0--0--0--0--0--0--0--0--0--0--0--0--0--0--0--0--0--0--0--0--0--0--0--0----|
A|-10-10-10-10-10-10-10-10-10-10-10-10-10-10-10-10-10-10-10-10-10-10-14-14---|
D|---------------------------------------------------------------------------|

E|---------------------------------------------------------------------------|
B|-8-8-8-8-8-7-7-7-7-7-7-7-8-8-8-8-8-7-7-7-7-7-7-7-7-------------------------|
G|-0-0-0-0-0-0-0-0-0-0-0-0-0-0-0-0-0-0-0-0-0-0-0-0-0-------------------------|
D|-0-0-0-0-0-0-0-0-0-0-0-0-0-0-0-0-0-0-0-0-0-0-0-0-0-------------------------|
A|-7-7-7-7-7-7-7-7-7-7-7-7-7-7-7-7-7-7-7-7-7-7-7-7-7-------------------------|
D|---------------------------------------------------------------------------|

E|---------------------------------------------------------------------------|
B|-12-12-12-12-12-10-10-10-10-10-10-10-12-12-12-12-12-10-10-10-10-10-15-15---|
G|-0—-0--0--0--0--0--0--0--0--0--0--0--0—-0--0--0—-0--0--0--0--0--0--0—-0----|
D|-0--0--0--0--0--0--0--0--0--0--0--0--0--0--0--0--0--0--0--0--0--0--0--0----|
A|-10-10-10-10-10-10-10-10-10-10-10-10-10-10-10-10-10-10-10-10-10-10-14-14---|
D|---------------------------------------------------------------------------|
E|---------------------------------------------------------------------------|
B|-12-12-12-12-12-10-10-10-10-10-10-10-12-12-12-12-12-10-10-10-10-10-15-15---|
G|-0—-0--0--0--0--0--0--0--0--0--0--0--0—-0--0--0—-0--0--0--0--0--0--0—-0----|
D|-0--0--0--0--0--0--0--0--0--0--0--0--0--0--0--0--0--0--0--0--0--0--0--0----|
A|-10-10-10-10-10-10-10-10-10-10-10-10-10-10-10-10-10-10-10-10-10-10-14-14---|
D|---------------------------------------------------------------------------|

E|---------------------------------------------------------------------------|
B|-5-5-5-5-5-5-5-5-5-5-5-5-5-5-5-5-5-----------------------------------------|
G|-0-0-0-0-0-0-0-0-0-0-0-0-0-0-0-0-0-----------------------------------------|
D|-0-0-0-0-0-0-0-0-0-0-0-0-0-0-0-0-0-----------------------------------------|
A|-3-3-3-3-3-3-3-3-3-3-3-3-3-3-3-3-3-----------------------------------------|
D|---------------------------------------------------------------------------|

Heavy Break – Distorted (x2)

E|-----------------------5-5-------------------------------------------------|
B|-8-8-8-8-8--7-7-7-7-7--7-7-5-5-5-5-5--5-5-5-5-5-5-5-5----------------------|
G|-0-0-0-0-0--0-0-0-0-0--0-0-0-0-0-0-0--0-0-0-0-0-0-0-0----------------------|
D|-0-0-0-0-0--0-0-0-0-0------0-0-0-0-0--0-0-0-0-0-0-0-0----------------------|
A|-7-7-7-7-7--7-7-7-7-7------3-3-3-3-3--3-3-3-3-3—3h5-5----------------------|
D|---------------------------------------------------------------------------|

Verse III – Clean (x1)

E|---------------------------------------------------------------------------|
B|-12-12-12-12-12-10-10-10-10-10-10-10-12-12-12-12-12-10-10-10-10-10-15-15---|
G|-0—-0--0--0--0--0--0--0--0--0--0--0--0—-0--0--0—-0--0--0--0--0--0--0—-0----|
D|-0--0--0--0--0--0--0--0--0--0--0--0--0--0--0--0--0--0--0--0--0--0--0--0----|
A|-10-10-10-10-10-10-10-10-10-10-10-10-10-10-10-10-10-10-10-10-10-10-14-14---|
D|---------------------------------------------------------------------------|

E|---------------------------------------------------------------------------|
B|-8-8-8-8-8-7-7-7-7-7-7-7-8-8-8-8-8-7-7-7-7-7-7-7-7-------------------------|
G|-0-0-0-0-0-0-0-0-0-0-0-0-0-0-0-0-0-0-0-0-0-0-0-0-0-------------------------|
D|-0-0-0-0-0-0-0-0-0-0-0-0-0-0-0-0-0-0-0-0-0-0-0-0-0-------------------------|
A|-7-7-7-7-7-7-7-7-7-7-7-7-7-7-7-7-7-7-7-7-7-7-7-7-7-------------------------|
D|---------------------------------------------------------------------------|

E|---------------------------------------------------------------------------|
B|-12-12-12-12-12-10-10-10-10-10-10-10-12-12-12-12-12-10-10-10-10-10-15-15---|
G|-0—-0--0--0--0--0--0--0--0--0--0--0--0—-0--0--0—-0--0--0--0--0--0--0—-0----|
D|-0--0--0--0--0--0--0--0--0--0--0--0--0--0--0--0--0--0--0--0--0--0--0--0----|
A|-10-10-10-10-10-10-10-10-10-10-10-10-10-10-10-10-10-10-10-10-10-10-14-14---|
D|---------------------------------------------------------------------------|
E|---------------------------------------------------------------------------|
B|-12-12-12-12-12-10-10-10-10-10-10-10-12-12-12-12-12-10-10-10-10-10-15-15---|
G|-0—-0--0--0--0--0--0--0--0--0--0--0--0—-0--0--0—-0--0--0--0--0--0--0—-0----|
D|-0--0--0--0--0--0--0--0--0--0--0--0--0--0--0--0--0--0--0--0--0--0--0--0----|
A|-10-10-10-10-10-10-10-10-10-10-10-10-10-10-10-10-10-10-10-10-10-10-14-14---|
D|---------------------------------------------------------------------------|

E|---------------------------------------------------------------------------|
B|-5-5-5-5-5-5-5-5-5-5-5-5-5-5-5-5-5-----------------------------------------|
G|-0-0-0-0-0-0-0-0-0-0-0-0-0-0-0-0-0-----------------------------------------|
D|-0-0-0-0-0-0-0-0-0-0-0-0-0-0-0-0-0-----------------------------------------|
A|-3-3-3-3-3-3-3-3-3-3-3-3-3-3-3-3-3-----------------------------------------|
D|---------------------------------------------------------------------------|

Heavy Break – Distorted (x2)

E|-----------------------5-5-------------------------------------------------|
B|-8-8-8-8-8--7-7-7-7-7--7-7-5-5-5-5-5--5-5-5-5-5-5-5-5----------------------|
G|-0-0-0-0-0--0-0-0-0-0--0-0-0-0-0-0-0--0-0-0-0-0-0-0-0----------------------|
D|-0-0-0-0-0--0-0-0-0-0------0-0-0-0-0--0-0-0-0-0-0-0-0----------------------|
A|-7-7-7-7-7--7-7-7-7-7------3-3-3-3-3--3-3-3-3-3—3h5-5----------------------|
D|---------------------------------------------------------------------------|




Chorus Pt. I – Distorted (x2)

E|---------------------------------------------------------------------------|
B|---------------------------------------------------------------------------|
G|-9-9-9-9-9-9-9-9-9-9-9-9-12-12-12-12-12-12-12-12-12-12-12-12---------------|
D|-7-7-7-7-7-7-7-7-7-7-7-7—10-10-10-10-10-10-10-10-10-10-10-10---------------|
A|-7-7-7-7-7-7-7-7-7-7-7-7—10-10-10-10-10-10-10-10-10-10-10-10---------------|
D|-7-7-7-7-7-7-7-7-7-7-7-7—10-10-10-10-10-10-10-10-10-10-10-10---------------|

Chorus Pt. II – Distorted (x1)

E|---------------------------------------------------------------------------|
B|---------------------------------------------------------------------------|
G|-4-4-4-4-4-4-4-4-4-4-4-4-7-7-7-7-7-7-7-7-7-7-7-7-9-9-9-9-9-9-9-9-9-9-9-9---|
D|-2-2-2-2-2-2-2-2-2-2-2-2-5-5-5-5-5-5-5-5-5-5-5-5-7-7-7-7-7-7-7-7-7-7-7-7---|
A|-2-2-2-2-2-2-2-2-2-2-2-2-5-5-5-5-5-5-5-5-5-5-5-5-7-7-7-7-7-7-7-7-7-7-7-7---|
D|-2-2-2-2-2-2-2-2-2-2-2-2-5-5-5-5-5-5-5-5-5-5-5-5-7-7-7-7-7-7-7-7-7-7-7-7---|

E|---------------------------------------------------------------------------|
B|---------------------------------------------------------------------------|
G|-12-12-12-12-12-12-12-12-12-12-12-12---------------------------------------|
D|-10-10-10-10-10-10-10-10-10-10-10-10---------------------------------------|
A|-10-10-10-10-10-10-10-10-10-10-10-10---------------------------------------|
D|-10-10-10-10-10-10-10-10-10-10-10-10---------------------------------------|

Heavy Break – Distorted (x2)

E|-----------------------5-5-------------------------------------------------|
B|-8-8-8-8-8--7-7-7-7-7--7-7-5-5-5-5-5--5-5-5-5-5-5-5-5----------------------|
G|-0-0-0-0-0--0-0-0-0-0--0-0-0-0-0-0-0--0-0-0-0-0-0-0-0----------------------|
D|-0-0-0-0-0--0-0-0-0-0------0-0-0-0-0--0-0-0-0-0-0-0-0----------------------|
A|-7-7-7-7-7--7-7-7-7-7------3-3-3-3-3--3-3-3-3-3—3h5-5----------------------|
D|---------------------------------------------------------------------------|

Verse IV – Clean (x1)

E|---------------------------------------------------------------------------|
B|-12-12-12-12-12-10-10-10-10-10-10-10-12-12-12-12-12-10-10-10-10-10-15-15---|
G|-0—-0--0--0--0--0--0--0--0--0--0--0--0—-0--0--0—-0--0--0--0--0--0--0—-0----|
D|-0--0--0--0--0--0--0--0--0--0--0--0--0--0--0--0--0--0--0--0--0--0--0--0----|
A|-10-10-10-10-10-10-10-10-10-10-10-10-10-10-10-10-10-10-10-10-10-10-14-14---|
D|---------------------------------------------------------------------------|

E|---------------------------------------------------------------------------|
B|-8-8-8-8-8-7-7-7-7-7-7-7-8-8-8-8-8-7-7-7-7-7-7-7-7-------------------------|
G|-0-0-0-0-0-0-0-0-0-0-0-0-0-0-0-0-0-0-0-0-0-0-0-0-0-------------------------|
D|-0-0-0-0-0-0-0-0-0-0-0-0-0-0-0-0-0-0-0-0-0-0-0-0-0-------------------------|
A|-7-7-7-7-7-7-7-7-7-7-7-7-7-7-7-7-7-7-7-7-7-7-7-7-7-------------------------|
D|---------------------------------------------------------------------------|

E|---------------------------------------------------------------------------|
B|-12-12-12-12-12-10-10-10-10-10-10-10-12-12-12-12-12-10-10-10-10-10-15-15---|
G|-0—-0--0--0--0--0--0--0--0--0--0--0--0—-0--0--0—-0--0--0--0--0--0--0—-0----|
D|-0--0--0--0--0--0--0--0--0--0--0--0--0--0--0--0--0--0--0--0--0--0--0--0----|
A|-10-10-10-10-10-10-10-10-10-10-10-10-10-10-10-10-10-10-10-10-10-10-14-14---|
D|---------------------------------------------------------------------------|
E|---------------------------------------------------------------------------|
B|-12-12-12-12-12-10-10-10-10-10-10-10-12-12-12-12-12-10-10-10-10-10-15-15---|
G|-0—-0--0--0--0--0--0--0--0--0--0--0--0—-0--0--0—-0--0--0--0--0--0--0—-0----|
D|-0--0--0--0--0--0--0--0--0--0--0--0--0--0--0--0--0--0--0--0--0--0--0--0----|
A|-10-10-10-10-10-10-10-10-10-10-10-10-10-10-10-10-10-10-10-10-10-10-14-14---|
D|---------------------------------------------------------------------------|

E|---------------------------------------------------------------------------|
B|-5-5-5-5-5-5-5-5-5-5-5-5-5-5-5-5-5-----------------------------------------|
G|-0-0-0-0-0-0-0-0-0-0-0-0-0-0-0-0-0-----------------------------------------|
D|-0-0-0-0-0-0-0-0-0-0-0-0-0-0-0-0-0-----------------------------------------|
A|-3-3-3-3-3-3-3-3-3-3-3-3-3-3-3-3-3-----------------------------------------|
D|---------------------------------------------------------------------------|


Heavy Break – Distorted (x2)

E|-----------------------5-5-------------------------------------------------|
B|-8-8-8-8-8--7-7-7-7-7--7-7-5-5-5-5-5--5-5-5-5-5-5-5-5----------------------|
G|-0-0-0-0-0--0-0-0-0-0--0-0-0-0-0-0-0--0-0-0-0-0-0-0-0----------------------|
D|-0-0-0-0-0--0-0-0-0-0------0-0-0-0-0--0-0-0-0-0-0-0-0----------------------|
A|-7-7-7-7-7--7-7-7-7-7------3-3-3-3-3--3-3-3-3-3—3h5-5----------------------|
D|---------------------------------------------------------------------------|

Chorus Pt. I – Distorted (x2)

E|---------------------------------------------------------------------------|
B|---------------------------------------------------------------------------|
G|-9-9-9-9-9-9-9-9-9-9-9-9-12-12-12-12-12-12-12-12-12-12-12-12---------------|
D|-7-7-7-7-7-7-7-7-7-7-7-7—10-10-10-10-10-10-10-10-10-10-10-10---------------|
A|-7-7-7-7-7-7-7-7-7-7-7-7—10-10-10-10-10-10-10-10-10-10-10-10---------------|
D|-7-7-7-7-7-7-7-7-7-7-7-7—10-10-10-10-10-10-10-10-10-10-10-10---------------|

Chorus Pt. II – Distorted (x1)

E|---------------------------------------------------------------------------|
B|---------------------------------------------------------------------------|
G|-4-4-4-4-4-4-4-4-4-4-4-4-7-7-7-7-7-7-7-7-7-7-7-7-9-9-9-9-9-9-9-9-9-9-9-9---|
D|-2-2-2-2-2-2-2-2-2-2-2-2-5-5-5-5-5-5-5-5-5-5-5-5-7-7-7-7-7-7-7-7-7-7-7-7---|
A|-2-2-2-2-2-2-2-2-2-2-2-2-5-5-5-5-5-5-5-5-5-5-5-5-7-7-7-7-7-7-7-7-7-7-7-7---|
D|-2-2-2-2-2-2-2-2-2-2-2-2-5-5-5-5-5-5-5-5-5-5-5-5-7-7-7-7-7-7-7-7-7-7-7-7---|

E|---------------------------------------------------------------------------|
B|---------------------------------------------------------------------------|
G|-12-12-12-12-12-12-12-12-12-12-12-12---------------------------------------|
D|-10-10-10-10-10-10-10-10-10-10-10-10---------------------------------------|
A|-10-10-10-10-10-10-10-10-10-10-10-10---------------------------------------|
D|-10-10-10-10-10-10-10-10-10-10-10-10---------------------------------------|

Bridge – Distorted (x1)

E|-3-3-3-3-3------3-3-3-3-3-----3-3-3-3-3-----3-3-3-3-3----------------------|
B|-3-3-3-3-3------3-3-3-3-3-----3-3-3-3-3-----3-3-3-3-3----------------------|
G|-0-0-0-0-0------0-0-0-0-0-----0-0-0-0-0-----0-0-0-0-0----------------------|
D|-0-0-0-0-0------0-0-0-0-0-----0-0-0-0-0-----0-0-0-0-0----------------------|
A|-3-3-3-3-3-0-0--3-3-3-3-3-0-0-3-3-3-3-3-0-0-3-3-3-3-3-0-0-0-0-0-0----------|
D|-----------0-0------------0-0-----------0-0-----------0-0-0-0-0-0----------|
PM           . .            . .           . .           . . . . . . 

E|-3-3-3-3-3------3-3-3-3-3-----3-3-3-3-3-----3-3-3-3-3----------------------|
B|-3-3-3-3-3------3-3-3-3-3-----3-3-3-3-3-----3-3-3-3-3----------------------|
G|-0-0-0-0-0------0-0-0-0-0-----0-0-0-0-0-----0-0-0-0-0---2------------------|
D|-0-0-0-0-0------0-0-0-0-0-----0-0-0-0-0-----0-0-0-0-0---0-(let ring)-------|
A|-3-3-3-3-3-0-0--3-3-3-3-3-0-0-3-3-3-3-3-0-0-3-3-3-3-3---0------------------|
D|-----------0-0------------0-0-----------0-0-------------0------------------|
PM           . .            . .           . .           

Outro – Guitar I - Distorted (x6)

NOTE: All TREMOLO PICKING (Very fast)

E|---------------------------------------------------------------------------|
B|---------------------------------------------------------------------------|
G|-4-4-4-4-4-4-4-4-4-4-4-4-7-7-7-7-7-7-7-7-7-7-7-7-9-9-9-9-9-9-9-9-9-9-9-9---|
D|-2-2-2-2-2-2-2-2-2-2-2-2-5-5-5-5-5-5-5-5-5-5-5-5-7-7-7-7-7-7-7-7-7-7-7-7---|
A|-2-2-2-2-2-2-2-2-2-2-2-2-5-5-5-5-5-5-5-5-5-5-5-5-7-7-7-7-7-7-7-7-7-7-7-7---|
D|-2-2-2-2-2-2-2-2-2-2-2-2-5-5-5-5-5-5-5-5-5-5-5-5-7-7-7-7-7-7-7-7-7-7-7-7---|

E|---------------------------------------------------------------------------|
B|---------------------------------------------------------------------------|
G|-12-12-12-12-12-12-12-12-12-12-12-12---------------------------------------|
D|-10-10-10-10-10-10-10-10-10-10-10-10---------------------------------------|
A|-10-10-10-10-10-10-10-10-10-10-10-10---------------------------------------|
D|-10-10-10-10-10-10-10-10-10-10-10-10---------------------------------------|


Outro – Guitar II

[TREMOLO PICKING]

(Plays from the second to sixth rendition of Guitar Is Part)

E|---------------------------------------------------------------------------|
B|---------------------------------------------------------------------------|
G|-4-4-4-4-4-4-4-4-4-7-7-7-7-7-7-7-7-9-9-9-9-9-9-9-9-12-12-12-12-12-12-12-12-|
D|---------------------------------------------------------------------------|
A|---------------------------------------------------------------------------|
D|---------------------------------------------------------------------------|

Outro – Guitar III

[TREMOLO PICKING]

(Plays from fourth to sixth rendition of Guitar Is part)

E|-0-0-0-0-0-0-0-0-0-3-3-3-3-3-3-3-3-5-5-5-5-5-5-5-5-8-8-8-8-8-8-8-8-8-------|
B|---------------------------------------------------------------------------|
G|---------------------------------------------------------------------------|
D|---------------------------------------------------------------------------|
A|---------------------------------------------------------------------------|
D|---------------------------------------------------------------------------|


Tap to rate this tab
 
# A B C D E F G H I J K L M N O P Q R S T U V W X Y Z