Song name
# A B C D E F G H I J K L M N O P Q R S T U V W X Y Z

Wiz Khalifa - The Thrill tab

-------------------------------------------------------------------------------
			     THE THRILL - Wiz Khalifa
-------------------------------------------------------------------------------
Tabbed by: Nick Hepburn
Email: nick8_gnr@hotmail.com

Tuning: Standard

Main Progression throughout the song comes soft single strum at the beginning then 
develops in to indicated strumming. (Synth transcribed for guitar)
   D   A    D   E
e|----------5---4----|
B|-7---5----5---5----|
G|-7---6----6---4----|
D|-7---7-------------|
A|-------------------|
E|-------------------|

Strumming Pattern
x u d u x u d u
1 & 2 & 3 & 4 &

Once Wiz comes in...
(Original part continues but this strumming comes in. Makes the progression sound more minor)

e|----------9--9--9-----9--9--9--------------|
B|-10-10----10-10-10----10-10-10----9-9-9----|
G|-11-11----10-10-10----10-10-10----9-9-9----|
D|-11-11----------------------------9-9-9----|
A|-------------------------------------------|
E|-------------------------------------------|

Chorus
(Original riff continues and this new one lightly starts)
e|---------------------------------------------|
B|-10-10-10-10-10-10-10-10-10-10-10-10-9-9-9-9-|
G|-11-11-11-11-11-11-11-11-11-11-11-11-9-9-9-9-|
D|---------------------------------------------|
A|---------------------------------------------|
E|---------------------------------------------|



************************************

| /   slide up
| \   slide down
| h   hammer-on
| p   pull-off
| ~   vibrato
| +   harmonic
| x   Mute note
| b   Bend
| pb  Pre-bend
| br  Bend release
| pbr Pre-bend release
| brb Bend release bend

************************************
Tap to rate this tab
 
# A B C D E F G H I J K L M N O P Q R S T U V W X Y Z