Song name
# A B C D E F G H I J K L M N O P Q R S T U V W X Y Z

Wiz Khalifa - Black And Yellow tab

Wiz Khalifa - Black & Yellow (Acoustic) Tab by Cainan Barnett

x = Hand Mute   0 = Open String

Intro (3x)

----1-1-1-x---0-0-x-0---1-1-1-1---1-1-1-1----|
----1-1-1-x---1-1-x-1---0-0-0-0---0-0-0-0----|
----2-2-2-x---0-0-x-0---3-3-3-3---3-3-3-3----|
----0-0-0-x---2-2-x-2---3-3-3-3---3-3-3-3----|
----x-x-x-x---3-3-x-3---x-x-x-x---x-x-x-x----|
----x-x-x-x---x-x-x-x---x-x-x-x---x-x-x-x----|

Chorus (3x)

----1-x--1-0-x-0---1-1-x-1-1-x-1-1-x-1-1----|
----1-x--1-1-x-1---0-0-x-0-1-x-0-0-x-1-1----|
----2-x--2-0-x-0---3-3-x-3-3-x-3-3-x-1-1----|
----0-x--0-2-x-2---3-3-x-3-3-x-3-3-x-1-1----|
----x-x--x-3-x-3---x-x-x-x-x-x-x-x-x-1-1----|
----x-x--x-x-x-x---x-x-x-x-x-x-x-x-x-1-1----|

Verse (7x)

----1-1-1-x---0-0-x-0---1-1-1-1---1-1-1-1----|
----1-1-1-x---1-1-x-1---0-0-0-0---0-0-0-0----|
----2-2-2-x---0-0-x-0---3-3-3-3---3-3-3-3----|
----0-0-0-x---2-2-x-2---3-3-3-3---3-3-3-3----|
----x-x-x-x---3-3-x-3---x-x-x-x---x-x-x-x----|
----x-x-x-x---x-x-x-x---x-x-x-x---x-x-x-x----|

Chorus (3x)

----1-x--1-0-x-0---1-1-x-1-1-x-1-1-x-1-1----|
----1-x--1-1-x-1---0-0-x-0-1-x-0-0-x-1-1----|
----2-x--2-0-x-0---3-3-x-3-3-x-3-3-x-1-1----|
----0-x--0-2-x-2---3-3-x-3-3-x-3-3-x-1-1----|
----x-x--x-3-x-3---x-x-x-x-x-x-x-x-x-1-1----|
----x-x--x-x-x-x---x-x-x-x-x-x-x-x-x-1-1----|

Verse (5x)

----1-1-1-x---0-0-x-0---1-1-1-1---1-1-1-1----|
----1-1-1-x---1-1-x-1---0-0-0-0---0-0-0-0----|
----2-2-2-x---0-0-x-0---3-3-3-3---3-3-3-3----|
----0-0-0-x---2-2-x-2---3-3-3-3---3-3-3-3----|
----x-x-x-x---3-3-x-3---x-x-x-x---x-x-x-x----|
----x-x-x-x---x-x-x-x---x-x-x-x---x-x-x-x----|

Chorus

----1-x--1-0-x-0---1-1-x-1-1-x-1-1-x-1-1----|
----1-x--1-1-x-1---0-0-x-0-1-x-0-0-x-1-1----|
----2-x--2-0-x-0---3-3-x-3-3-x-3-3-x-1-1----|
----0-x--0-2-x-2---3-3-x-3-3-x-3-3-x-1-1----|
----x-x--x-3-x-3---x-x-x-x-x-x-x-x-x-1-1----|
----x-x--x-x-x-x---x-x-x-x-x-x-x-x-x-1-1----|

...etc...etc...

Check Out My Video At --> http://www.youtube.com/user/caindog98b

Rate It If You Can! Hope This Helps!
Tap to rate this tab
 
# A B C D E F G H I J K L M N O P Q R S T U V W X Y Z