Song name
# A B C D E F G H I J K L M N O P Q R S T U V W X Y Z

Wiz Khalifa - Black And Yellow tab

Dm               C               Bb                          
-1---0---1---0---1---0---1---0---1------1------1------1------:
---3---3---3---3---1---1---1---1-----------------------------:
-----------------------------------2-3-2--2-3-2--2-3-2--2-3-2:
-------------------------------------------------------------:
-------------------------------------------------------------:
-------------------------------------------------------------:

or 
Dm                       C            Bb
---------------------------------------------------------------------:
-6--3--5--3--6--3--5--3--6--5--6--5---6------6-------6-------6-------:
---------------------------5--5--5--5--2-3-2---2-3-2---2-3-2---2-3-2-:
---------------------------------------------------------------------:
---------------------------------------------------------------------:
---------------------------------------------------------------------:
Tap to rate this tab
 
# A B C D E F G H I J K L M N O P Q R S T U V W X Y Z