Wiz Khalifa - Black And Yellow tab

Wiz Khalifa- Black And Yellow
Lead Guitar Part (DROP C)
Tabbed By Ryan


Intro/Chorus

D|--16-12-14-12--16-12-14-12--16--14----16---14---|
A|------------------------------16--16----16---16-|
F|------------------------------------------------|
C|------------------------------------------------|
G|------------------------------------------------|
C|------------------------------------------------|


D|-15----------15----------15--12-14--|
A|---12-13-12----12-13-12----12-------|
F|------------------------------------|
C|------------------------------------|
G|------------------------------------|
C|------------------------------------|

Verse

D|-----------------------------------------------|
A|-----------------------------------------------|
F|-12-9-11-9--12-9-11-9--12---11----12--11-------|
C|-------------------------12---12----12--12-----|
G|-----------------------------------------------|
C|-----------------------------------------------|

   1 e + a  2 e + a  3 e + a  4  e + a

D|---------------------------------------|------|
A|---------------------------------------|o-----|
F|-12-------12--------12--------12----9-11--|---|
C|---9-10-9-----9-10-9----9-10-9-----9------|---|
G|---------------------------------------|o-----|
C|---------------------------------------|------|


Bridge at 2:22

                         __alt repeat 1. 3.   __2.
                        |                    |
D|----------------------|------------------| |-----------------------| |
A|----------------------|------------------|o|-----------------------|o|
F|----------------------|------------------| |-----------------------| |
C|----------------------|------------------| |-----------------------| |
G|-7-7-5----------------|------------------|o|-----------------------|o|
C|-------7-5-(5)-0-(0)--|-5-7-(7)-7-9-(9)--| |-5-7-(7)-7-9-(9)-12-9--| |





D|--------------------------|------------------------------------------------|
A|--------------------------|------------------------------------------------|
F|-12--11--12---11--12---11--12---11---|-12--11----12--11----12--11----12-11-|
C|---10--10---10--10---10--10---10--10--|---12-12----12--12----12-12-----12--|
G|--------------------------|------------------------------------------------|
C|--------------------------|------------------------------------------------|


END ON 12th fret for bridge
Tap to rate this tab
 
# A B C D E F G H I J K L M N O P Q R S T U V W X Y Z