Song name
# A B C D E F G H I J K L M N O P Q R S T U V W X Y Z

Wiz Khalifa - Studio Lovin tab

-------------------------------------------------------------------------------
			     Studio Lovin - Wiz Khalifa
-------------------------------------------------------------------------------
Tabbed by: MasterLong

Email: longshot976@gmail.com

Tuning: Standard

Tried to get this right by ear, email me with any corrections!

e|-------------------7--8--7--5--3--2--5--2-----7----7--5--3--5--3--0-----0--|
B|------------3--5----------------------------0----0-------------------------|
G|-4---4--5------------------------------------------------------------------|
D|---------------------------------------------------------------------------|
A|---------------------------------------------------------------------------|
E|---------------------------------------------------------------------------|


e|-3--5--2----------7-8-10-7-8-10-7-8-10-7-8-10-----------------------------|
B|----------3----0----------------------------------------------------------|
G|--------------------------------------------------------------------------|
D|--------------------------------------------------------------------------|
A|--------------------------------------------------------------------------|
E|--------------------------------------------------------------------------|
                                    Repeat
Tap to rate this tab
 
# A B C D E F G H I J K L M N O P Q R S T U V W X Y Z