Song name
# A B C D E F G H I J K L M N O P Q R S T U V W X Y Z

Wiz Khalifa - Hopes And Dreams tab

-----------------------------------------------------------------------------
			   HOPES AND DREAMS - Wiz Khalifa
-----------------------------------------------------------------------------

Song: Hopes and Dreams
Artist: Wiz Khalifa
Album: Rolling Papers
Tabbed by: rd93
Tuning: Standard (EADGBe)

The acoustic guitar has a lot of delay on it and plays this throughout the whole song:

   Fmaj7               Am
e|-----0-x-x-|----------------0-----|--------------|
B|-----1-x-x-|------------1---1---1-|--------------|
G|-2~----x-x-|-2-2-2-2-2--2-------2-|-2-2-2-2------|
D|-3~----x-x-|-3-3-3-3-2------------|-2-2-2-2------|
A|-0---------|-0-0-0-0-0------------|-0-0-0-0------|
E|-----------|----------------------|--------------|

Here are the two fills in the chorus:

e|-1-0------1-0------1-0------1-0----------0-1-0---|
B|-----1--------1--------1--------1----1-3-------1-|
G|-------------------------------------------------|
D|-------------------------------------------------|
A|-------------------------------------------------|
E|-------------------------------------------------|

e|-3/5-------3/12----3/5---------------------------|
B|-------------------------------------------------|
G|-------------------------------------------------|
D|-------------------------------------------------|
A|-------------------------------------------------|
E|-------------------------------------------------|
Tap to rate this tab
 
# A B C D E F G H I J K L M N O P Q R S T U V W X Y Z