Song name
# A B C D E F G H I J K L M N O P Q R S T U V W X Y Z

Wiz Khalifa - Fly tab

-----------------------------------------------------------------------------
			   FLY SOLO - Wiz Khalifa
-----------------------------------------------------------------------------

Song: Fly Solo
Artist: Wiz Khalifa
Album: Rolling Papers
Tabbed by: rd93
Tuning: Standard (EADGBe)

The whole song goes like this:

   G             Bm               D             G
e|--------3-3--x-----------2-------------2-2--x-----------3-|
B|--------3-3--x-----------3-------------3-3--x-----------3-|
G|--------0-0--x-----------4-------------x-x--x-----------0-|
D|--------x-x--x-----------4------0--0~--0-0--x-----------x-| x3, then
A|--------x-x--x-2-x-2-2~---------------------------------x-|
E|-3--3~--3-3--x--------------------------------3-x-3-3~--3-|

   G             Bm               E             G
e|--------3-3--x-----------2---------------0--x-----------3-|
B|--------3-3--x-----------3---------------0--x-----------3-|
G|--------0-0--x-----------4-------------1-1--x-----------0-|
D|--------x-x--x-----------4-------------2----x-----------x-|
A|--------x-x--x-2-x-2-2~----------------2----------------x-|
E|-3--3~--3-3--x------------------0--0~--0------3-x-3-3~--3-|

Use a slight palm mute on the E. Play the D instead of the E going into the last 
chorus and in the outro.
Tap to rate this tab
 
# A B C D E F G H I J K L M N O P Q R S T U V W X Y Z