Song name
# A B C D E F G H I J K L M N O P Q R S T U V W X Y Z

Wiz Khalifa - Cameras tab

Artist:  Wiz Khalifa
Song:  Cameras
Album:  Rolling Papers
Tuning:  Standard (EADGBe)


Riff repeated through song
(As synth and guitar):

e|---------------------------------------------------|
B|---------------------------------------------------|
G|--13-13-13-12-12----------10-10-10-8-8-------------|
D|-----------------13-13-13--------------10-10-10----|
A|---------------------------------------------------|
E|---------------------------------------------------|


e|---------------------------------------------------|
B|---------------------------------------------------|
G|--6-6-6-5-5-------3-3-3-3-3-5-5-5------------------|
D|------------6-6-6----------------------------------|
A|---------------------------------------------------|
E|---------------------------------------------------|
Tap to rate this tab
 
# A B C D E F G H I J K L M N O P Q R S T U V W X Y Z