Song name
# A B C D E F G H I J K L M N O P Q R S T U V W X Y Z

Wiz Khalifa - Black And Yellow tab

-------------------------------------------------------------------------------
			     Black And Yellow - Wiz Khalifa
-------------------------------------------------------------------------------
Tabbed by:nitroguitar
Email:mikimiska@live.de (No Spam please)

Tutorial: http://www.youtube.com/watch?v=Ogm1hYbIDfA&feature=related
 


Tuning:Drop D (D A D G B E)
(~ long note)

Intro:

e|-13-10-12-10-|-13-10-12-10-|-13----12----|-13----12----||
B|-------------|-------------|----13----13-|----13----13-||
G|-------------|-------------|-------------|-------------||
D|-------------|-------------|-------------|-------------||
A|-------------|-------------|-------------|-------------||
D|-------------|-------------|-------------|-------------||

e|-13----------|-13----------|-13----------|-13----10-12-||
B|----10-11-10-|----10-11-10-|----10-11-10-|----10-------||
G|-------------|-------------|-------------|-------------||
D|-------------|-------------|-------------|-------------||
A|-------------|-------------|-------------|-------------||
D|-------------|-------------|-------------|-------------||

Vers (0.35 min)

e|----------|----------|------------|------------|
B|----------|----------|------------|------------|
G|-10-7-9-7-|-10-7-9-7-|-10----9----|-10----9----|
D|----------|----------|----10---10-|----10---10-|
A|----------|----------|------------|------------|
D|----------|----------|------------|------------|

e|----------|----------|------------|-----------||
B|----------|----------|------------|-----------||
G|-10-------|-10-------|-10---------|-10---7-9--||
D|----7-8-7-|----7-8-7-|----7-8-7---|----7------||
A|----------|----------|------------|-----------||
D|----------|----------|------------|-----------||

Bridge (2.22 min)
                                  
e|------------------|-------------|-----------------|------------------|
B|------------------|-------------|-----------------|------------------|
G|------------------|-------------|-----------------|------------------|
D|------------------|-------------|-----------------|------------------|
A|-5-5-3------------|-------------|-5-5-3-----------|------------------|
D|-------5-3~3-0~0--|-3-5~5-5-7~7-|-------5-3~3-0~0-|-3-5~5-5-7~7-10-7-|

e|-----------------|-------------|
B|-----------------|-------------|
G|-----------------|-------------|
D|-----------------|-------------|
A|-5-5-3-----------|-------------|
D|-------5-3~3-0~0-|-3-5~5-5-7~7-|

e|----------|----------|----------|---------|------------|-----------|------------|-----------|
B|----------|----------|----------|---------|------------|-----------|------------|-----------|
G|-10---9---|-10---9---|10---9----|10---9---|-10----9----|-10----9---|-10----9----|-10----9---|
D|----8---8-|----8---8-|---8---8--|---8---8-|----10---10-|----10---10|----10---10-|----10---10|
A|----------|----------|----------|---------|------------|-----------|------------|-----------|
D|----------|----------|----------|---------|------------|-----------|------------|-----------|
 BACK TO BEGINING


************************************
Tap to rate this tab
 
# A B C D E F G H I J K L M N O P Q R S T U V W X Y Z