Song name
# A B C D E F G H I J K L M N O P Q R S T U V W X Y Z

Wiz Khalifa - Young Wild And Free tab

Young, Wild and Free feat. Bruno Mars and Snoop Dogg - Wiz Khalifa

This basically follows along with what the piano is playing, and during the 
chorus, it follows along with what Bruno Mars is singing.

Intro/Chorus
e|-------------------------|--------------------------------------------------|
B|-------------------------|--------------------------------------------------|
G|-------------------------|--------------------------------------------------|
D|-4--------------7--7--7--|--------------------------------------------------|
A|----7--5-----5--5--5--5--|-5--0--5--9--9--9--9------------------------------|
E|----------7--------------|----------7--7--7--7------------------------------|
x3                        then
So what we get drunk,       We don't care who sees
So what we smoke weed,
We're just havin fun.

e|-------------------------|------------------------------------------------|
B|-------------------------|------------------------------------------------|
G|-------------------------|------------------------------------------------|
D|-4--------------7--7--7--|-4--4--4--2/4--0--2--4--2--2p3h2--0-------------|
A|----7--5-----5--5--5--5--|------------------------------------------------|
E|----------7--------------|------------------------------------------------|
So what we go out           That's how it's supposed to be, 
                            Livin young, and wild and free


Wiz Khalifa's part
e|-------------------------|  Im not sure how many times
B|-------------------------|  your supposed to play it. 
G|-------------------------|  Just play until the chorus,
D|-4--------------7--7--7--|  then play chorus riff.
A|----7--5-----5--5--5--5--|
E|----------7--------------|


Snoop Dogg's part
e|-------------------------|  Same things as Wiz Khalifas part
B|-------------------------|
G|-------------------------|
D|-4--------------7--7--7--|
A|----7--5-----5--5--5--5--|
E|----------7--------------|
Tap to rate this tab
 
# A B C D E F G H I J K L M N O P Q R S T U V W X Y Z