Song name
# A B C D E F G H I J K L M N O P Q R S T U V W X Y Z

Wiz Khalifa - Young Wild And Free tab

Pretty simple, My take on the tab. Legitimately my first tab, so i hope you like it c:

~ = Hold
    So what we...
e|------------------------------------------------------------------|
B|---7--------------7--------------7--------------7-----------------|
G|------9--7-----7~----9--7-----7~----9--7-----7~----9--7-----------|
D|------------9--------------9--------------9--------------9--9~----|
A|------------------------------------------------------------------|
E|------------------------------------------------------------------|
                     That's how it's supposed...
e|------------------------------------------------------------------|
B|---7---------------7--7--10------7~-------8~-7-----7--------------|
G|------9--7-----7~------------7------7--7--------9~----7~----------|
D|------------9-----------------------------------------------------|
A|------------------------------------------------------------------|
E|------------------------------------------------------------------|
Tap to rate this tab
 
# A B C D E F G H I J K L M N O P Q R S T U V W X Y Z