Song name
# A B C D E F G H I J K L M N O P Q R S T U V W X Y Z

Wiz Khalifa - Good Dank tab

THIS TAB IS BASED ON THE BASSLINE, NOT THE ACTUAL GUITAR YOU HEAR.
The guitar riffs sound like they're mostly improv. Some really soulful stuff there, but 
I can't help you haha. You'll just have to listen to the song and play around with it

This is the way I play it, it sounds pretty good, but the timing can be tricky and I'm 
not sure about the key. It stays the same the whole song, so there's lots of room for 
improv, slides and bends, so do how you do. This is my first tab, so forgive any spacing issues.




e-|------------------------------------------------------|  x3
B-|------------------------------------------------------|
G-|--6~----4p6-------------------------------------------|
D-|--6~--4p6----6--7~--7-7-9p7---------------------------|
A-|--4~---------6--7~----------7\------------------------|
E-|-------------4--5~------------------------------------|

Slide down from the 7th fret into the power chord
e-|------------------------------------------------------|
B-|------------------------------------------------------|
G-|------------------------------------------------------|
D-|--4~----2p4--6~----4p6--------------------------------|
A-|--4~--2p4----6~--4p6----------------------------------|
E-|--2~---------4~---------------------------------------|
Tap to rate this tab
# A B C D E F G H I J K L M N O P Q R S T U V W X Y Z