Guitaretab - guitar tabs
Song name
# A B C D E F G H I J K L M N O P Q R S T U V W X Y Z

Wizard - True Metal tab

                                          TRUE METAL
                                             BY
                                           WIZARD
                                            FROM
                                     HEAD OF THE DECEIVER
   
 TABBED BY DANIEL KALANDER
 
 TUNE DOWN 1/2 STEP

  INTRO x2   2 GUITARS
e|-----------------------------------------------------------|
B|-----------------------------------------------------------|
G|---10/12-10--7--9--7--9--10----10/12-10--7--9--7--9--10----|
D|-7---------------------------7-----------------------------|
A|-----------------------------------------------------------|
E|-----------------------------------------------------------|
 |
e|-----------------------------------------------------------|
B|-----------------------------------------------------------|
G|-----------------------------------------------------------|
D|-7---------------------------7-----------------------------|
A|-7---------------------------7-----------------------------|
E|-5---------------------------5-----------------------------|


e|-----------------------------------------------------------|
B|-----------------------------------------------------------|
G|---10/12-10--7--9--7--9--10----10/12-10--7--9--7--9--10----|
D|-----------------------------5-----------------------------|
A|-8---------------------------------------------------------|
E|-----------------------------------------------------------|
 |
e|-----------------------------------------------------------|
B|-----------------------------------------------------------|
G|-----------------------------------------------------------|
D|-3---------------------------5-----------------------------|
A|-3---------------------------5-----------------------------|
E|-1---------------------------3-----------------------------|


  INTRO RIFF 2
e|--------------------------------------------------------------------|
B|--------------------------------------------------------------------|
G|-2------------------2------------------2----------------------------|
D|-2------------------2------------------2------------------5----3----| x3 
A|-0-0-0-0-0-3--2--3--0-0-0-0-0-8--7--5--0-0-0-0-0-3--2--3--5----3----|
E|----------------------------------------------------------3----1----|


e|------|
B|------|
G|------|
D|-2----|
A|-2----|
E|-0----|

  
  VERSE RIFF 1
e|----------------------------------------------------------------------------|
B|----------------------------------------------------------------------------|
G|-9-------7-----------9------7------------9------7---------------------------|
D|-7-------7-----------7------7------------7------7----5---------3------------| x3
A|---0-0-0--0-0-0-0-0---0-0-0--0-0-0-0-0-0--0-0-0------5---------3------------|
E|-----------------------------------------------------3-3-3-3-3-1-1-1-1-1----|

e|------------------------------------------------------|
B|------------------------------------------------------|
G|------------------------------------------------------|
D|-2---------------2---------------3---------------5----|
A|-2---------------2---------------3---------------5----|
E|-0-0-0-0-0-0-0-0-0-0-0-0-0-0-0-0-1-1-1-1-1-1-1-1-3----|


  BRIDGE
e|---------------------------------------------------------------------|
B|---------------------------------------------------------------------|
G|---------------------------------------------------------------------|
D|-3---------------3---------1---3--2---------------2---------0---2----| x2
A|-3---------------3---------1---3--2---------------2---------0---2----|
E|-1-1-1-1-1-1-1-1---1-1-1-1---1----0-0-0-0-0-0-0-0---0-0-0-0---0------|

e|--------------------------------------------------------------------------------------------|
B|--------------------------------------------------------------------------------------------|
G|-7-----------7--5--4--7--5---7--2---------------4-------------4-----------------------------|
D|-7-----------7--5--4--7--5---7--2---------------4-------------4-----------------------------|
A|-5-5-5-5-5-5-5--3--2--5--3---5--0-0-0-0-0-0-0-0-2-2-2-2-2-2-2-2-2-2-2-2-2-2--7--8--7--5--7--|
E|--------------------------------------------------------------------------------------------|


  CHORUS
e|------------------------------------------------------|
B|------------------------------------------------------|
G|-2-----2-2-----5--------------------------------------|
D|-2-----2-2-----5---------------5-----------5-4-2------|
A|-0-----0-0-----3-3-3-3-3-3-3-3-5-----------3-2-0-5----|
E|-------------------------------3-3-3-3-3-3-------3----|

e|------------------------------------------------------|
B|------------------------------------------------------|
G|-2-----2-2-----5---------------7----------------------|
D|-2-----2-2-----5---------------7-----------5-4-2------|
A|-0-----0-0-----3-3-3-3-3-3-3-3-5-5-5-5-5-5-3-2-0-5----|
E|-------------------------------------------------3----|

e|------------------------------------------------------------------------------|
B|------------------------------------------------------------------------------|
G|-2-----2-2-----5--------------------------------------------------------------|
D|-2-----2-2-----5---------------5-----------------3-----------------------5----|
A|-0-----0-0-----3-3-3-3-3-3-3-3-5-----------------3-----------------------5----|
E|-------------------------------3-3-3-3-3-3-3-3-3-1-1-1-1-1-1-1-1-1-1-1-1-3----|

  

  AFTER CHORUS RIFF
e|-----------------------------------------------------------|
B|-----------------------------------------------------------|
G|-2-----5-----7-----10---9-----2-----5-----7-----10---12----|
D|-2-----5-----7-----10---9-----2-----5-----7-----10---12----|
A|-0-----3-----5-----8----7-----0-----3-----5-----8----10----|
E|-------3-----5-----8----7-----------3-----5-----8----10----|


  VERSE RIFF 1
  BRIDGE
  CHORUS
  AFTER CHORUS RIFF


e|------------------------------|
B|------------------------------|
G|------------------------------|
D|-2-----3---5---2-----3---5----|
A|-2-----3---5---2-----3---5----|
E|-0-----1---3---0-----1---3----|

e|---------------------|
B|---------------------|
G|---------------------|
D|-2--3--5--2--3--5----| x?
A|-2--3--5--2--3--5----|
E|-0--1--3--0--1--3----|

e|----------------|
B|----------------|
G|----------------|
D|----------------| x?
A|----------------|
E|-0-1-3-0-1-3----|

e|------------------|
B|------------------|
G|------------------|
D|-2---2---2---2----| x?
A|-2---2---2---2----|
E|-0---0---0---0----|


 
e|-----------------------------|
B|-----------------------------|
G|---10/12-10--7--9--7--9--10--|
D|-7---------------------------|
A|-----------------------------|
E|-----------------------------|
 |
e|-----------------------------|
B|-----------------------------|
G|-2---------------------------|
D|-2---------------------------|
A|-0---------------------------|
E|-----------------------------|
 
  
  VERSE RIFF 2
e|--------------------------------------------------------------------------------|
B|--------------------------------------------------------------------------------|
G|-9-------9-------------9-------9-----------9-------10---------------------------|
D|-7-------7-------------7-------7-----------7-------7-----5---------3------------| x3
A|---0-0-0---0-0-0-0-0-0---0-0-0---0-0-0-0-0---0-0-0-------5---------3------------|
E|---------------------------------------------------------3-3-3-3-3-1-1-1-1-1----|

e|------------------------------------------------------|
B|------------------------------------------------------|
G|------------------------------------------------------|
D|-2----------------------------------------------------|
A|-2-----------------------------------------------5----|
E|-0-0-0-0-0-0-0-0-0-0-0-0-0-0-0-0-1-1-1-1-1-1-1-1-3----|


  CHORUS

  ENDING
e|------|
B|------|
G|-2----|
D|-2----| x?
A|-0----|
E|------|
[ Tab from: http://www.guitaretab.com/w/wizard/45380.html ]
Related for True Metal tab